Oops, an error
Loading. Please wait.

The Good Left Undone bass

version 1
version 1

Whole song

Interactive

5,560 views 24 this week
3 commentsread comments
1 2 3 4 5
x 8
add to favorites
×
Save as Personal and add changes to this tab that will be seen only by you. Learn more ›
×
You can save this tab as Personal to edit and correct it or add notes. All changes will be seen only by you. Learn more »
launch autoscroll
font size
0
reset
guitar tuner
backing track
0:00
0:00
edit
Autoscroll
slow
fast
+/-
esc
set tempo
stop
-------------------------------------------------------------------------------
			     The Good Left Undone - Rise Against
-------------------------------------------------------------------------------

Tabbed By : BassGuitarGuy94
Update= fixed ending of the pre-chorus (sounds a lot better this way)
Tuning: standard (EADG)

Intro
G|---------------------------------------------------------------------------|
D|----------------------------(Guitar)---------------------------------------| 
A|---------------------------------------------------------------------------|
E|---------------------------------------------------------------------------|

Bass Enters
G|---------------------------------------------------------------------------|
D|-----------------------------2-22222---------4444444-1-1-2111-(repeat x2)--|
A|-44444444444444-0000000000000--------2222222-------------------------------|
E|---------------------------------------------------------------------------|

Pre-Chorus
G|---------------------------------------------------------------------------|
D|-7777-6666-4444-2222-------------------------------------------------------|
A|---------------------------------------------------------------------------|
E|---------------------------------------------------------------------------|

G|---------------------------------------------------------------------------|
D|---------------7777-6666-4444-2222--------(repeat x2)----------------------|
A|-4~44444444444-------------------------------------------------------------|
E|---------------------------------------------------------------------------|

G|---------------------------------------------------------------------------|
D|---------------------------------------------------------------------------|
A|-5-------------------------------------------------------------------------|
E|--0~000000-2~222222-555544442----------------------------------------------|

Chorus
G|---------------------------------------------------------------------------|
D|------------------------------------------(repeat x2)----------------------|
A|-4-4-4-4-4-4-4-4-----------------2-2-2-2-2-2-2-2-0-0-0-0-0-0-0-0-----------|
E|-----------------0-0-0-0-0-0-0-0-------------------------------------------|

Pause, Then guitar 
G|---------------------------------------------------------------------------|
D|---------------------------------------------------------------------------|
A|----------------------(guitar)---------------------------------------------|
E|---------------------------------------------------------------------------|

Bass Enters
G|---------------------------------------------------------------------------|
D|-----------------------------2-22222---------4444444-1-1-2111-(repeat x2)--|
A|-44444444444444-0000000000000--------2222222-------------------------------|
E|---------------------------------------------------------------------------|

Pre-Chorus
G|---------------------------------------------------------------------------|
D|-7777-6666-4444-2222-------------------------------------------------------|
A|---------------------------------------------------------------------------|
E|---------------------------------------------------------------------------|

G|---------------------------------------------------------------------------|
D|---------------7777-6666-4444-2222-----------------------------------------|
A|-4~44444444444--------------------(repeat x2)------------------------------|
E|---------------------------------------------------------------------------|

G|---------------------------------------------------------------------------|
D|---------------------------------------------------------------------------|
A|-5-------------------------------------------------------------------------|
E|--0~000000-2~222222-555544442----------------------------------------------|

Chorus
G|---------------------------------------------------------------------------|
D|------------------------------------------------------(repeat x2)----------|
A|-4-4-4-4-4-4-4-4-----------------2-2-2-2-2-2-2-2-0-0-0-0-0-0-0-0-----------|
E|-----------------0-0-0-0-0-0-0-0-------------------------------------------|

Guitar Solo
G|---------------------------------------------------------------------------|
D|------------------------------------------------------(repeat x2)----------|
A|-4-4-4-4-4-4-4-4-----------------2-2-2-2-4-4-2-2-0-0-0-0-0-0-0-0-----------|
E|-----------------0-0-0-0-0-2-3-5-------------------------------------------|

Bass Solo
G|---------------------------------------------------------------------------|
D|---------------------------------------------------------------------------|
A|-44-444-4--------22-222-2--------44-444-4--------22-222-2------------------|
E|---------00-000-0--------55-555-5--------00-000-0--------55555-------------|

Ending
G|---------------------------------------------------------------------------|
D|------------------------------------------------------(repeat x2)----------|
A|-4-4-4-4-4-4-4-4-----------------2-2-2-2-2-2-2-2-0-0-0-0-0-0-0-0-----------|
E|-----------------0-0-0-0-0-0-0-0-------------------------------------------|

G|---------------------------------------------------------------------------|
D|------------------------------------------------------(repeat x2)----------|
A|-4-4-4-4-4-4-4-4-----------------2-2-2-2-4-4-2-2-0-0-0-0-0-0-0-0-----------|
E|-----------------0-0-0-0-0-2-3-5-------------------------------------------|

| /  slide up
| \  slide down
| h  hammer-on
| p  pull-off
| ~  vibrato
| +  harmonic
| x  Mute note
===============================================================================

            
            
Suggest correction
Creating personal tab
Creating personal tab
You can edit any tab online and save it as your Personal.

You can edit, replace or remove any tab part or add personal notes – all changes will be seen only by you.

Personal tabs can be accessed anytime from any device, even offline.
Learn more »
comments
print report bad tab
3 comments total.
+1 reply
HawkBassNelson 91 Mar 04, 2010 01:46 PM

Good tab! 5*!

0 reply
BassGuitarGuy94 115 May 24, 2010 04:08 PM

Thanks guys. doesnt take me long to make a tab. right now im working on a bass tab for the song "whats this" from fall out boys cover from that tim burton halloween christmas movie and im gonna make a bass tab for The Plain White Tees song "1,2,3,4". i should have both done within a week or two

0 reply
Hikaru-Kun 36 Dec 25, 2015 08:10 AM

It is PERFECT, thank you very much!
Rated 5*!

guest
You may want to rate the tab now too:
select rating
Wanna post a correction for this tab? Suggest correction