Oops, an error
Loading. Please wait.

The Strength To Go On Bass Tab

version 1
version 1

Whole song

Interactive

4,359 views 6 this week
no commentswrite comment
1 2 3 4 5
x 3
add to favorites
launch autoscroll
font size
0
reset
guitar tuner
×
Best way to learn
"The Strength To Go On"
Autoscroll
slow
fast
+/-
esc
set tempo
stop
Author
Difficulty
Verse
G|-------------------------------------------|
D|-------------------------------------------|
A|44-4-4-764-00-0-0-222--44-4-4-764-00-0-0-2-|
E|-------------------------------------------|

G|---------------------------------------------|
D|---------------------------------------------|
A|44-4-4-764-00-0-0-222------------------------|
E|-----------------------00-0-0-000-22-2-2-222-|

G|-------------------------------------------|
D|-------------------------------------------|
A|44-4-4-764-00-0-0-222--44-4-4-764-00-0-0-2-|
E|-------------------------------------------|

G|---------------------------------------------|
D|---------------------------------------------|
A|44-4-4-764-00-0-0-222------------------------|
E|-----------------------00-0-0-000-22-2-2-222-|

Pre Chorus
G|-----------------------------------------------------|
D|-----------------------------------------------------|
A|0~--2~--4-4-44-4-4-44---------------0-0-00-0-0-00-2>-|
E|----------------------0-0-00-0-0-00------------------|

Chorus
G|---------------------------------------------------------|
D|---------------------------------------------------------|
A|4444------00000000-4444-6666-00000000-4444------00000000-|
E|-----0000----------------------------------0000----------|

Post chorus (we dont have the strenght to go on)
G|----------------------------|
D|----------------------------|
A|2222222-0-0000000-2222222-0-|
E|----------------------------|

Verse x1 (pretty much the same)

Pre Chorus x1

Chorus x1

Post chorus
G|------------------------------------|
D|------------------------------------|
A|2222222-0-0000000-2222222-0-0000024-|
E|------------------------------------|

Bridge
G|----------------------------------------------------------|
D|----------------------------------------------------------|
A|22-44-0-0-00-0-0-00-22-44-0-0-00-0-0-00-/-1212-1111-99-77-|
E|----------------------------------------------------------|

G|--------------------------------------------------------|
D|--------------------------------------------------------|
A|2-2-22-2-2-22-4-4-44-4-4-44-0-0-00-0-0-00-0-0-00-0-0-00-|
E|--------------------------------------------------------|

G|-------------------------------------------|
D|-------------------------------------------|
A|2-2-22-2-2-22-4-4-44-4-4-44-0>--2>--0>-4>--|
E|-------------------------------------------|

Breakdown (Softly)
G|--------------------------------------------------------------|
D|--------------------------------------------------------------|
A|4~----0~--4~-6~-0~--4~-6~/12-11-9-2222222-0-0000000-2222222-0-|
E|---0~---------------------------------------------------------|

Chorus x1

Post Chorus

The End.

Might be a few fills missing but it sounds ok.
Please comment and rate. One of the best bands in the
world still lives on. (even though theyve softened up
heaps they still freggin rule).
Suggest correction
Give kudos to tab author, rate the tab!
1 2 3 4 5
comments
print report bad tab
guest
You may want to rate the tab now too:
select rating
Wanna post a correction for this tab? Suggest correction