Oops, an error
Loading. Please wait.
We have Chord Pro version of The Violence.
It's the closest thing you can get to the original song and it has interactive parts. Check out the tab »
×
235 views 33 this week
no commentswrite comment
1 2 3 4 5
2 more votes to show rating
add to favorites
×
Save as Personal and add changes to this tab that will be seen only by you. Learn more ›
×
You can save this tab as Personal to edit and correct it or add notes. All changes will be seen only by you. Learn more »
launch autoscroll
font size
0
reset
guitar tuner
edit
Autoscroll
slow
fast
+/-
esc
set tempo
stop
Half-Step Down

[Intro]
(4 bars of nothing then)
G|----------------|----------------|----------------|----------------|
D|----------------|----------------|----------------|----------------|
A|-2-2-2-2-2-2-2-2|-2-2-2-2-2-2-2-2|-2-2-2-2-2-2-2-2|-2-0-----------0|
E|----------------|----------------|----------------|-----3-2-0-2-3--|

[Verse] (x2)
"Dancing on the crumbling precipice..."
G|----------------|----------------|----------------|----------------|
D|----------------|----------------|----------------|----------------|
A|-2-2-2-2-2-2-2-2|-2-2-2-2-2-2-2-2|-2-2-2-2-2-2-2-2|-2-2-2-2-2-2-2-2|
E|----------------|----------------|----------------|----------------|

G|----------------|----------------|----------------|----------------|
D|----------------|----------------|----------------|----------------|
A|-5-5-5-5-5-5-5-5|-5-5-5-5-5-5-5-5|-7-7-7-7-7-7-7-7|-7-7-7-7-7-7-7-7|
E|----------------|----------------|----------------|----------------|

G|----------------|----------------|----------------|----------------|
D|----------------|----------------|----------------|----------------|
A|-2-2-2-2-2-2-2-2|-2-2-2-2-2-2-2-2|-2-2-2-2-2-2-2-2|-2-0-----------0|
E|----------------|----------------|----------------|-----3-2-0-2-3--|

[Chorus]
"Are we not good enough..."
G|----------------|----------------|----------------|----------------|
D|----------------|----------------|----------------|----------------|
A|----------------|----------------|-0-0-0-0-0-0-0-0|-0-0-0-0-0-0-0-0|
E|-3-3-3-3-3-3-3-3|-3-3-3-3-3-3-3-3|----------------|----------------|

G|----------------|----------------|----------------|----------------|
D|----------------|----------------|----------------|----------------|
A|-2-2-2-2-2-2-2-2|-2-2-2-2-2-2-2-2|-5-5-5-5-5-5-5-5|-5-5-5-5-5-5-5-5|
E|----------------|----------------|----------------|----------------|

G|----------------|----------------|----------------|----------------|
D|----------------|----------------|----------------|----------------|
A|----------------|----------------|-0-0-0-0-0-0-0-0|-0-0-0-0-0-0-0-0|
E|-3-3-3-3-3-3-3-3|-3-3-3-3-3-3-3-3|----------------|----------------|

G|----------------|----------------|----------------|----------------|
D|----------------|----------------|-------------5-7|-------------5-7|
A|-2-2-2-2-2-2-2-2|-2-2-2-2-2-2-2-2|-5-5-5-5-5-5----|-5-5-5-5-5-5----|
E|----------------|----------------|----------------|----------------|

G|----------------|----------------|----------------|----------------|
D|----------------|----------------|----------------|----------------|
A|----------------|----------------|-0~~------------|----------------|
E|-3-3-3-3-3-3-3-3|-3-3-3-3-3-3-3-3|----------------|----------------|

[Instrumental]
G|----------------|----------------|----------------|----------------|
D|----------------|----------------|----------------|----------------|
A|-2-2-2-2-2-2-2-2|-2-2-2-2-2-2-2-2|-2-2-2-2-2-2-2-2|-2-0-----------0|
E|----------------|----------------|----------------|-----3-2-0-2-3--|

[Verse]
"To a predetermined fate are we condemned?..."
G|----------------|----------------|----------------|----------------|
D|----------------|----------------|----------------|----------------|
A|-2-2-2-2-2-2-2-2|-2-2-2-2-2-2-2-2|-2-2-2-2-2-2-2-2|-2-2-2-2-2-2-2-2|
E|----------------|----------------|----------------|----------------|

G|----------------|----------------|----------------|----------------|
D|----------------|----------------|----------------|----------------|
A|-5-5-5-5-5-5-5-5|-5-5-5-5-5-5-5-5|-7-7-7-7-7-7-7-7|-7-7-7-7-7-7-7-7|
E|----------------|----------------|----------------|----------------|

G|----------------|----------------|----------------|----------------|
D|----------------|----------------|----------------|----------------|
A|-2-2-2-2-2-2-2-2|-2-2-2-2-2-2-2-2|-2-2-2-2-2-2-2-2|-2-0-----------0|
E|----------------|----------------|----------------|-----3-2-0-2-3--|

G|----------------|----------------|----------------|----------------|
D|----------------|----------------|----------------|----------------|
A|-2-2-2-2-2-2-2-2|-2-2-2-2-2-2-2-2|-2-2-2-2-2-2-2-2|-2-2-2-2-2-2-2-2|
E|----------------|----------------|----------------|----------------|

G|----------------|----------------|----------------|----------------|
D|----------------|----------------|----------------|----------------|
A|-5-5-5-5-5-5-5-5|-5-5-5-5-5-5-5-5|-7-7-7-7-7-7-7-7|-7-7-7-7-7-7-7-7|
E|----------------|----------------|----------------|----------------|

G|----------------|----------------|----------------|----------------|
D|----------------|----------------|----------------|----------------|
A|-5-5-5-5-5-5-5-5|-5-5-5-5-5-5-5-5|-7~~~-----------|-7.-------------|
E|----------------|----------------|----------------|----------------|

[Chorus]
"Are we not good enough..."
G|----------------|----------------|----------------|----------------|
D|----------------|----------------|----------------|----------------|
A|----------------|----------------|-0-0-0-0-0-0-0-0|-0-0-0-0-0-0-0-0|
E|-3-3-3-3-3-3-3-3|-3-3-3-3-3-3-3-3|----------------|----------------|

G|----------------|----------------|----------------|----------------|
D|----------------|----------------|----------------|----------------|
A|-2-2-2-2-2-2-2-2|-2-2-2-2-2-2-2-2|-5-5-5-5-5-5-5-5|-5-5-5-5-5-5-5-5|
E|----------------|----------------|----------------|----------------|

G|----------------|----------------|----------------|----------------|
D|----------------|----------------|----------------|----------------|
A|----------------|----------------|-0-0-0-0-0-0-0-0|-0-0-0-0-0-0-0-0|
E|-3-3-3-3-3-3-3-3|-3-3-3-3-3-3-3-3|----------------|----------------|

G|----------------|----------------|----------------|----------------|
D|----------------|----------------|-------------5-7|-------------5-7|
A|-2-2-2-2-2-2-2-2|-2-2-2-2-2-2-2-2|-5-5-5-5-5-5----|-5-5-5-5-5-5----|
E|----------------|----------------|----------------|----------------|

G|----------------|----------------|----------------|----------------|
D|----------------|----------------|----------------|----------------|
A|----------------|----------------|-0-0-0-0-0-0-0-0|-0-0-0-0-0-0-0-0|
E|-3-3-3-3-3-3-3-3|-3-3-3-3-3-3-3-3|----------------|----------------|

[Bridge]
G|----------------|----------------|----------------|----------------|
D|-9-9-9-9-7-7-7-7|-5-5-5-5-4-4-4-4|-5-5-5-5-4-4-4-4|-2-2-2-2-0-2-4--|
A|----------------|----------------|----------------|----------------|
E|----------------|----------------|----------------|----------------|

G|----------------|----------------|----------------|----------------|
D|-9-9-9-9-7-7-7-7|-5-5-5-5-4-4-4-4|-5-5-5-5-4-4-4-4|-2-2-2-2-0-0-0--|
A|----------------|----------------|----------------|----------------|
E|----------------|----------------|----------------|----------------|

G|----------------|----------------|----------------|----------------|
D|----------------|----------------|----------------|----------------|
A|-0-0-0-0-0-0-0-0|-0-0-0-0-0-0-0-0|-0-0-0-0-0-0-0-0|-0-0-0-0-0-0-0-0|
E|----------------|----------------|----------------|----------------|

G|----------------|----------------|----------------|----------------|
D|----------------|----------------|----------------|----------------|
A|-2-2-2-2-2-2-2-2|-2-2-2-2-2-2-2-2|----------------|----------------|
E|----------------|----------------|-3-3-3-3-3-3-3-3|-3-3-3-3-3-3-3--|

G|-----------2----|----------------|----------------|----------------|
D|-------2-4---2-4|----------------|----------------|----------------|
A|-0-2-4----------|-0-0-0-0-0-0-0-0|-0-0-0-0-0-0-0-0|-0-0-0-0-0-0-0-0|
E|----------------|----------------|----------------|----------------|

G|----------------|----------------|----------------|----------------|
D|----------------|----------------|----------------|----------------|
A|-2-2-2-2-2-2-2-2|-2-2-2-2-2-2-2-2|----------------|----------------|
E|----------------|----------------|-3-3-3-3-3-3-3-3|-3-3-3-3-3-3-3--|

G|-----------2----|----------------|----------------|----------------|
D|-------2-4---2-4|----------------|----------------|----------------|
A|-0-2-4----------|-0-0-0-0-0-0-0-0|-0-0-0-0-0-0-0-0|-0-0-0-0-0-0-0-0|
E|----------------|----------------|----------------|----------------|

G|----------------|----------------|----------------|----------------|
D|----------------|----------------|----------------|----------------|
A|-2-2-2-2-2-2-2-2|-2-2-2-2-2-2-2-2|----------------|----------------|
E|----------------|----------------|-3-3-3-3-3-3-3-3|-3-3-3-3-3-3-3--|

G|----------------|----------------|----------------|----------------|
D|----------------|----------------|----------------|---------0-2~~--|
A|-2-2-2-2-2-2-2-2|-2-2-2-2-2-2-2-2|----------------|-5-3-2----------|
E|----------------|----------------|-3-3-3-3-3-3-3-3|----------------|

G|----------------|
D|----------------|
A|-2~~~-----------|
E|----------------|

[Chorus]
"Are we not good enough..."
G|----------------|----------------|----------------|----------------|
D|----------------|----------------|----------------|----------------|
A|----------------|----------------|-0-0-0-0-0-0-0-0|-0-0-0-0-0-0-0-0|
E|-3-3-3-3-3-3-3-3|-3-3-3-3-3-3-3-3|----------------|----------------|

G|----------------|----------------|----------------|----------------|
D|----------------|----------------|----------------|----------------|
A|-2-2-2-2-2-2-2-2|-2-2-2-2-2-2-2-2|-5-5-5-5-5-5-5-5|-5-5-5-5-5-5-5-5|
E|----------------|----------------|----------------|----------------|

G|----------------|----------------|----------------|----------------|
D|----------------|----------------|----------------|----------------|
A|----------------|----------------|-0-0-0-0-0-0-0-0|-0-0-0-0-0-0-0-0|
E|-3-3-3-3-3-3-3-3|-3-3-3-3-3-3-3-3|----------------|----------------|

G|----------------|----------------|----------------|----------------|
D|----------------|----------------|-------------5-7|-------------5-7|
A|-2-2-2-2-2-2-2-2|-2-2-2-2-2-2-2-2|-5-5-5-5-5-5----|-5-5-5-5-5-5----|
E|----------------|----------------|----------------|----------------|

G|----------------|----------------|----------------|----------------|
D|----------------|----------------|----------------|----------------|
A|----------------|----------------|-0-0-0-0-0-0-0-0|-0-0-0-0-0-0-0-0|
E|-3-3-3-3-3-3-3-3|-3-3-3-3-3-3-3-3|----------------|----------------|

G|----------------|----------------|----------------|----------------|
D|----------------|----------------|----------------|----------------|
A|-2-2-2-2-2-2-2-2|-2-2-2-2-2-2-2-2|-5-5-5-5-5-5-5-5|-5-5-5-5-5-5-5-5|
E|----------------|----------------|----------------|----------------|

G|----------------|----------------|----------------|----------------|
D|-5-5-4-4-2-2-0-0|-2-2-0-0--------|----------------|----------------|
A|----------------|---------4-4-5-5|-0~~~-----------|-2~~~-----------|
E|----------------|----------------|----------------|----------------|


************************************

| ~  Vibrato

************************************

            
            
Suggest correction
Creating personal tab
Creating personal tab
You can edit any tab online and save it as your Personal.

You can edit, replace or remove any tab part or add personal notes – all changes will be seen only by you.

Personal tabs can be accessed anytime from any device, even offline.
Learn more »
Give kudos to tab author, rate the tab!
1 2 3 4 5
comments
print report bad tab
guest
You may want to rate the tab now too:
select rating
Wanna post a correction for this tab? Suggest correction