Oops, an error
Loading. Please wait.

This Is Letting Go bass

version 2
version 2

Whole song

Interactive

459 views 1 this week
no commentswrite comment
1 2 3 4 5
1 last vote to show rating
add to favorites
×
Save as Personal and add changes to this tab that will be seen only by you. Learn more ›
×
You can save this tab as Personal to edit and correct it or add notes. All changes will be seen only by you. Learn more »
launch autoscroll
font size
0
reset
guitar tuner
edit
Autoscroll
slow
fast
+/-
esc
set tempo
stop
0:09
F#|---------------------------------------------------------------------|
C#|-2--/4-4-4-6-6-6-7-7-9-9-9-7-7-7-6-6---------------------------------|
G#|-----------------------------------------------------7-7-7-7-7-7-7-7-|
D#|-------------------------------------0-0-0-0-0-0-0-0-----------------|

F#|-----------------------------------------------------------------|
C#|-----------------------------------------------------------------|
G#|-9-9-9-9-9-9-9-9-5-5-5-5-5-5-5-5-0-0-0-0-0-0-0-0-7-7-7-7-7-7-7-7-|
D#|-----------------------------------------------------------------|

F#|---------------------------------------------------------------------|
C#|---------------------------------------------------------------------|
G#|-9-9-9-9-9-9-9-9-5-5-5-5-5-5-5-5-----------------7-7-7-7-5-4-7---9---|
D#|---------------------------------0-0-0-0-0-0-0-0---------------------|

Rest

0:30
F#|-----------------------------------------------------------------|
C#|-----------------------------------------------------------------|
G#|-----------------5-5-5-5-5-5-5-5-7-7-7-7-7-7-7-7-7-7-7-7-7-7-7-7-|
D#|-2-2-2-2-2-2-2-2-------------------------------------------------|

F#|-----------------------------------------------------------------|
C#|-----------------------------------------------------------------|
G#|-----------------5-5-5-5-5-5-5-5-0-0-0-0-0-0-0-0-7-7-7-7-7-7-7-7-|
D#|-2-2-2-2-2-2-2-2-------------------------------------------------|

F#|-----------------------------------------------------------------|
C#|-----------------------------------------------------------------|
G#|-9-9-9-9-9-9-9-9-5-5-5-5-5-5-5-5-7-7-7-7-7-7-7-7-7-7-7-7-7-7-2-4-|
D#|-----------------------------------------------------------------|

0:45
F#|------------------------------------------------------------------|
C#|---------------------------------------------------------11-9-7-6-|
G#|-5-----4-4-----2-2-----0-0-----------------------7-7-7-7----------|
D#|-------------------------------0-0-0-0-0-0-0-0-0------------------|

0:50
F#|-----------------------------------------------------------------|
C#|---------------------------------------------6-7---6-------------|
G#|-0-0-0-0-0-0-0-0---0-0---0-0-0-0-7-7-7-7-7-7---------7---7-7-7-7-|
D#|-----------------------------------------------------------------|

F#|-----------------------------------------------------------------------|
C#|-------------11---9-9-9-11-11-11-11-11---------------------------------|
G#|-9-9-9-7-9-----------------------------5-5-9-9-9-7-7-7-5-5-5-5-5-5-5-5-|
D#|-----------------------------------------------------------------------|

1:00
F#|-----------------------------------------------------------------|
G#|---------------------------------------------6-7---6-------------|
G#|-0---4p0-5p0-5-4---4p0-5p0-5---7---7-7-7-7-7---------7---7-7-7-7-|
D#|-----------------------------------------------------------------|

1:05
F#|--------------------------------------------------13---14-------------14-|
C#|-----------------9-9-9-11-11-11-11-11-0-0-0-0-0-0-----------------0------|
G#|-9-----7-9---7-----------------------------------------------------------|
D#|-------------------------------------------------------------------------|

F#|-------------------------------------|
C#|-------------------------------------|
G#|-5---5-5---5-5-5-7---7-7---7-7-7-----|
D#|-------------------------------------|

1:12
F#|-----------------------------------------------------------------|
C#|-----------------------------------------------------------------|
G#|-9-9-9-9-9-9-9-9-5-5-5-5-5-5-5-5-0-0-0-0-4-4-5-5-2-2-2-2---------|
D#|---------------------------------------------------------0-0-0-0-|

F#|-----------------------------------------------------------------|
C#|-----------------------------------------------------------------|
G#|-9-9-9-9-9-9-9-9-5-5-5-5-5-5-5-5-7-7-7-7-7-7-7-7-7-7-7-7-7-7-7-7-|
D#|-----------------------------------------------------------------|

1:22
F#|-----------------------------------------------------------------|
C#|-----------------------------------------------------------------|
G#|-----------------5-5-5-5-5-5-5-5-0-0-0-0-0-0-0-0-----------------|
D#|-2-2-2-2-2-2-2-2---------------------------------0-0-0-0-0-0-0-0-|

F#|-----------------------------------------------------------------|
C#|-----------------------------------------------------------------|
G#|-----------------5-5-5-5-5-5-5-5-------------------------5-5-7-7-|
D#|-2-2-2-2-2-2-2-2-----------------0-0-0-0-0-0-0-0-0-0-0-0---------|

F#|-----------------------------------------------------------------|
C#|-----------------------------------------------------------------|
G#|-9-9-9-9-9-9-9-9-5-5-5-5-5-5-5-5-0-0-0-0-0-0-0-0-7-7-7-7-7-7-7-7-|
D#|-----------------------------------------------------------------|

F#|-----------------------------------------------------------------|
C#|-----------------------------------------------------------------|
G#|-9-9-9-9-9-9-9-9-5-5-5-5-5-5-5-5-7-7-7-7-7-7-7-7-7-7-7-7-7-7-2-4-|
D#|-----------------------------------------------------------------|

1:42
F#|----------------------------------------------------|
C#|----------------------------------------------------|
G#|-5-----4-4-----2-2-----0-0----------------------7---|
D#|------------------------------0-0-0-0-0-0-0-0-0-----|

1:47
F#|-----------------------------------------------------------------|
C#|---------------------------------------------6-7---6-------------|
G#|-0-0-0-0-0-0-0-0---0-0---0-0-0-0-7-7-7-7-7-7---------7---7-7-7-7-|
D#|-----------------------------------------------------------------|

F#|-----------------------------------------------------------------|
C#|-----------------------------------------------------------------|
G#|-9-9-9-7---9-7---2---4---5-5-5-5-5-5-9-9-9-7-7-7-5-5-5-5-5-5-5-5-|
D#|-----------------------------------------------------------------|

1:57
F#|-----------------------------------------------------------------|
C#|---------------------------------------------6-7---6-------------|
G#|-0---4p0-5p0-5-4---4p0-5p0-5---7---7-7-7-7-7---------7---7-7-7-7-|
D#|-----------------------------------------------------------------|

F#|-----------------------------------------------------------------|
C#|-----------------------------------------------------------------|
G#|-9-----7-9---7---2---4----5-5-5-5-5-5-5-5-5-5-5-5-5-5-5-5-2--4---|
D#|-----------------------------------------------------------------|

2:06
F#|-----------------------------------------------------------------------------|
C#|-----------------------------------------------------------------------------|
G#|-----------------------5----5----5----5------------------------9------7------|
D#|-2--4--5--7----5--4------------------------2--4--5--7----5--4----------------|

F#|---------------------------------------------------------------------------------|
C#|---------------------------------------------------------------------------------|
D#|-9-9-9-9-9-9-9-9-9-9-9-9-9-9-9-9/17-17-17-17-17-17-17-17-17-17-17-17-17-17-17-17-|
D#|---------------------------------------------------------------------------------|

F#|-----------------------------------------------------------------------------------------------|
C#|-----------------------------------------------------------------------------------------------|
G#|12-12-12-12-12-12-12-12-12-12-12-12-12-12-12-12-14-14-14-14-14-14-14-14-14-14-14-14-14-14-14-14|
D#|-----------------------------------------------------------------------------------------------|

F#|-----------------------------------------------------------------|
C#|-----------------------------------------------------------------|
G#|---------------------------------5-5-5-5-5-5-5-5-5-5-5-5-5-5-5-5-|
D#|-2-2-2-2-2-2-2-2-2-2-2-2-2-2-2-2---------------------------------|

F#|-----------------------------------------------------------------|
C#|-----------------------------------------------------------------|
G#|-0-0-0-0-0-0-0-0-0-0-0-0-0-0-0-0-2-2-2-2-2-2-2-2-2---------------|
D#|-----------------------------------------------------------------|

2:34
F#|-----------------------------------------------------------------|
C#|-----------------------------------------------------------------|
G#|-----------------5---5-5-5-5-5-5-0---0---0-0-0---2---2-2-2-2-2-2-|
D#|-2---2---2-2-2---------------------------------------------------|

F#|-----------------------------------------------------------------|
C#|-----------------------------------------------------------------|
G#|-----------------5---5-5-5-5-5-5-0---0---0-0-0---2---2-2-4-4-4-4-|
D#|-2---2---2-2-2---------------------------------------------------|

2:43
F#|-----------------------------------------------------------------|
C#|-----------------------------------------------------------------|
G#|-9---9---9-9-7---5---5-5-5-5-5-5-0---0---0-0-0---2---2-2-2-2-2-2-|
D#|-----------------------------------------------------------------|

F#|-----------------------------------------------------------------|
C#|-----------------------------------------------------------------|
G#|-9---9-9-9-11-12-5---5-5-5-5-5-5-0---0---0-0-0---2---2-2-2-2-4-4-|
D#|-----------------------------------------------------------------|

2:51
F#|-----------------------------------------------------------------------------|
C#|-----------------------------------------------------------------------------|
G#|-5-5-----0-0-2-2-5-5-4-4-2-2-0-0-7-7-7-7/11-11-11-11-12-12-12-12-11-11-11-11-|
D#|-----2-2---------------------------------------------------------------------|

2:56
F#|-----------------------------------------------------------------|
C#|-----------------------------------------------------------------|
G#|-0------------------------------h7-------------------------------|
D#|-----------------------------------------------------------------|

F#|-----------------------------------------------------------------|
C#|-----------------------------------------------------------------|
G#|---------------------------------5-5-9-9-9-7-7-7-5-5-5-5-5-5-5-5-|
D#|-2-2-2-2-2-2-2-2---2-2---2-2-2-2---------------------------------|

3:06
F#|-----------------------------------------------------------------|
C#|-----------------------------------------------------------------|
G#|-0-0-0-0-0-0-0-0-0-0-0-0-4-4-5-5-7-7-7-7-7-7-7-7-7-7-7-7---------|
D#|---------------------------------------------------------5-5-4-4-|

F#|--------------------------------------------------------------------|
C#|--------------------------------------------------------------------|
G#|-------------------------2-2-4-4-5-5-5-5-5-5-5-5-5-5-5-5-5-5-5/17\5-|
D#|-2-2-2-2-2-2-2-2-2-2-2-2--------------------------------------------|

3:15
F#|-----------------------------------------------------------------|
C#|-----------------------------------------------------------------|
G#|-0---0---0---0---0---0---0---0-----------------------------------|
D#|---------------------------------0---0---0---0---0---0---0---0---|

F#|--------------------------------------------------------------------|
C#|--------------------------------------------------------------------|
G#|-------------------------2---4---5-5-5-5---5-5---5-5-5-/-17-17-17---|
D#|-2---2-2-2---2-2-2---2-2--------------------------------------------|

3:24
F#|-----------------------------------------------------------------|
C#|-----------------------------------------------------------------|
G#|-0---0---0---0---0---0---0---0-----------------------------------|
D#|---------------------------------0---0---0---0---0---0---0---0---|

F#|---------------------------------------------------------------------|
C#|---------------------------------------------------------------------|
G#|-------------------------2---4---5-5-5-5---5-5---5-5-5-5-5-5-5-5-----|
D#|-2---2-2-2---2-2-2---2-2-----------------------------------------2---|
Tabbed by Dave Vucko

            
            
Suggest correction
Creating personal tab
Creating personal tab
You can edit any tab online and save it as your Personal.

You can edit, replace or remove any tab part or add personal notes – all changes will be seen only by you.

Personal tabs can be accessed anytime from any device, even offline.
Learn more »
Give kudos to tab author, rate the tab!
1 2 3 4 5
comments
print report bad tab
guest
You may want to rate the tab now too:
select rating
Wanna post a correction for this tab? Suggest correction