Oops, an error
Loading. Please wait.

Torches tab

version 2
version 2

Whole song

Interactive

880 views 1 this week
no commentswrite comment
1 2 3 4 5
2 more votes to show rating
add to favorites
×
Save as Personal and add changes to this tab that will be seen only by you. Learn more ›
×
You can save this tab as Personal to edit and correct it or add notes. All changes will be seen only by you. Learn more »
launch autoscroll
font size
0
reset
how to read this tab
guitar tuner
edit
Autoscroll
slow
fast
+/-
esc
set tempo
stop
Author
Tabbed by Jamie Harris
Tuning 1/2 step down then drop D

Intro pt. 1

Guitar 1
--------------------------------------------------------|
--------------------------------------------------------|
--------------------------------------------------------|
-xx-10-10\9--9--5-5-5/7-7-xx-10-10\9--12-12-9--9-/10-10-|
-xx-12-12\10-10-7-7-7/8-8-xx-12-12\10-14-14-10-10/12-12-|
-xx-----------------------xx----------------------------|
^ ^ ^ ^ ^ ^ ^ ^ ^ ^ ^ ^ ^

This part again then
-----------------|
-----------------|
-5-5-5-5-7-7-7-7-|
-5-5-5-5-7-7-7-7-|
-3-3-3-3-5-5-5-5-|
-----------------| repeat the whole thing x 2

Guitar 2
----------------------------------------------------|
----------------------------------------------------|
-----------------7h9--------------------------------|
-77-------------------77--------------------10p9-77-|
-77-------------------77-------------------------77-|
-77-------------------77-------------------------77-|

---------------------|
---------------------|
-7h9-5-5-5-5-7-7-7-7-|
-----5-5-5-5-7-7-7-7-|
-----3-3-3-3-5-5-5-5-|
---------------------| all x 2

Intro Pt.2 Both guitars play guitar one part twice
           with one doing the little licks from G2.

Verse Guitar 2
-----------------------------------------------------------------|
-----------------------------------------------------------------|
---------------------------------5-------------------------------|
-7-------------------------------5---------------5---------------|
-7-------------------------------3-3-3-3-3-3-3-3-5---------------|
-7-7-7-7-7-7-7-7-7-7-7-7-7-7-7-7-----------------5-5-5-5-5-5-5-5-|
   . . . . . . . . . . . . . . .   . . . . . . .   . . . . . . .

-----------------------------------------------------------------|
-----------------------------------------------------------------|
-----------------------------------------------------------------|
-7-------------------------------3---------------5---------------|
-7-------------------------------3---------------5---------------|
-7-7-7-7-7-7-7-7-7-7-7-7-7-7-7-7-3-3-3-3-3-3-3-3-5-5-5-5-5-5-5-5-|
   . . . . . . . . . . . . . . .   . . . . . . .   . . . . . . .

all x 2

Chorus Both
----------------------------------------------------------------|
----------------------------------------------------------------|
-5-4----7-5-4-------------------5-4----7-5-9/10-----------------|
-5-4-55-7-5-45-7-7-7-7-7-7-7-7--5-4-55-7-5-9/10-7-7-7-7-7-7-7-7-|
-3-2-55-5-3-25-7-7-7-7-7-7-7-7--3-2-55-5-3-7/8--7-7-7-7-7-7-7-7-|
-----55------5-7-7-7-7-7-7-7-7------55----------7-7-7-7-7-7-7-7-| x 2

The second time round replace the last 7's with:
--------------|
--------------|
----------5---|
-3~---7-5-5-5-|
-3~---7-5-3-5-|
-3~---7-5---5-|

Verse 2 same chords but not muted

Chorus again

Interlude - Guitar 1
-----------------------------------------------------|
-----------------------------------------------------|
-----------------------------------------------------|
-7-7-7-7-7---10101010-5-5-5-5-5---10101010-7-7-7-7-7-|
-7-7-7-7-7---10101010-5-5-5-5-5---10101010-7-7-7-7-7-|
-7-7-7-7-7---10101010-5-5-5-5-5---10101010-7-7-7-7-7-|

---------------------|
---------------------|
---------------------|
-10101010-9--9--5--5-|
-10101010-9--9--5--5-|
-10101010-9--9--5--5-| all x 2

Guitar 2
--------------|
--------------|
-9--9--9--9---|
--10-10-10-10-|
--------------|
--------------| all muted, repeat as neccesary :)

Interlude pt.2
--------------------------------------------------------------------------|
--------------------------------------------------------------------------|
--------------------------------------------------------------------------|
-7-7-7-7-7-7-10101010-5-5-5-5-5-5-10101010-7-7-7-7-7-7-10101010-9--9-5--5-|
-7-7-7-7-7-7-10101010-5-5-5-5-5-5-10101010-7-7-7-7-7-7-10101010-9--9-5--5-|
-7-7-7-7-7-7-10101010-5-5-5-5-5-5-10101010-7-7-7-7-7-7-10101010-9--9-5--5-|

x2

Interlude pt.3 - Guitar 1
-------------------------------|
-------------------------------|
----9----------------9---------|
------10--9------------10-9-10-|
-12---------10----10-----------|
-------------------------------| x 4

Guitar 2
-----------------------------------------------------------|
-[12]---------[12]-----------[12]-----------------[12]-----|
-----[12]-------------------------[12]-------[12]----------|
-------------------[7]---------------------------------[7]-|
-----------------------------------------------------------|
-----------------------------------------------------------|

------------------------------------------------|
-[12]--------[12]-----------[12]-------[12]-----|
-----[12]---------------------------------------|
------------------[7]-----------[12]--------[7]-|
------------------------------------------------|
------------------------------------------------| you'll hear these harmonics
                                                 as an echo of Guitar 1

Then play the chorus

Outro = intro

Guitar 2 at the end
-------------------------------------------------|
-------------------------------------------------|
-12/14-14-14-14-14-14-14-12/14-14-14-14-14-14-14-|
-------------------------------------------------|
-------------------------------------------------|
-------------------------------------------------|

-------------------------------------------------|
-------------------------------------------------|
-12/14-14-14-------------12-12-12-12-------------|
-------------14-14-14-14-------------12-12-12-12-|
-------------------------------------------------|
-------------------------------------------------|

And thats it :)

N.B You don't have to play in drop D, I just find it easier.

            
            
Suggest correction
Creating personal tab
Creating personal tab
You can edit any tab online and save it as your Personal.

You can edit, replace or remove any tab part or add personal notes – all changes will be seen only by you.

Personal tabs can be accessed anytime from any device, even offline.
Learn more »
Give kudos to tab author, rate the tab!
1 2 3 4 5
comments
print report bad tab
guest
You may want to rate the tab now too:
select rating
Wanna post a correction for this tab? Suggest correction