Oops, an error
Loading. Please wait.

Welcome To The Breakdown bass

version 1
version 1

Whole song

Interactive

7 views 6 this week
no commentswrite comment
1 2 3 4 5
3 more votes to show rating
add to favorites
×
Save as Personal and add changes to this tab that will be seen only by you. Learn more ›
×
You can save this tab as Personal to edit and correct it or add notes. All changes will be seen only by you. Learn more »
launch autoscroll
font size
0
reset
guitar tuner
edit
Autoscroll
slow
fast
+/-
esc
set tempo
stop
Artist: Rise Against
Song: Welcome To The Breakdown
Album: Wolves (2017)

Bass (Eb Ab Db Gb Bb eb) - 'Joe Principe - Clean, Pick'

- May not be 100% accurate as the bass is a bit difficult to hear clearly.

[Intro]
4/4
     (H)                  (Wx4)
Gb||---------------------|------------------------------------|
Db||---------------------|------------------------------------|
Ab||---------------------|------------------------------------|
Eb||---------------------|------------------------------------|

     E   S S S S E   E   S S S S E        E   S S S S E   E   E   E   E
Gb|------------------------------------|------------------------------------|
Db|------------------------------------|------------------------------------|
Ab|------------------------------------|------------------------------------|
Eb|--0---0-0-0-0-0---0---0-0-0-0-0-----|--0---0-0-0-0-0---0---0---0---0-----|

     E   S S S S E   E   S S S S E        E   S S S S E   S S S S E   E 
Gb|------------------------------------|------------------------------------|
Db|------------------------------------|------------------------------------|
Ab|------------------------------------|------------------5-5-5-5-5---------|
Eb|--0---0-0-0-0-0---0---0-0-0-0-0-----|--0---0-0-0-0-0---------------5-----|

[Verse 1]
     E   S E   S E   E   S E   S E        E   S E   S E   S S S S E   E 
Gb|------------------------------------|------------------------------------|
Db|------------------------------------|------------------------------------|
Ab|------------------------------------|------------------5-5-5-5-5---------|
Eb|--0---0-0---0-0---0---0-0---0-0-----|--0---0-0---0-0---------------5-----|

     E   S E   S E   E   S E   S E        E   S E   S E   S S S S E   E 
Gb|------------------------------------|------------------------------------|
Db|------------------------------------|------------------------------------|
Ab|------------------------------------|------------------3-3-3-3-3---5-----|
Eb|--0---0-0---0-0---0---0-0---0-0-----|--0---0-0---0-0---------------------|

     E   S E   S E   E   S E   S E        E   S E   S E   S S S S E   E 
Gb|------------------------------------|------------------------------------|
Db|------------------------------------|------------------------------------|
Ab|--0---0-0---0-0---0---0-0---0-0-----|--0---0-0---0-0---5-5-5-5-5---------|
Eb|------------------------------------|------------------------------5-----|

     E   S E   S E   E   S E   S E        E   S E   S E   S S S S E   E 
Gb|------------------------------------|------------------------------------|
Db|------------------------------------|------------------------------------|
Ab|------------------------------------|------------------5-5-5-5-5---------|
Eb|--0---0-0---0-0---0---0-0---0-0-----|--0---0-0---0-0---------------5-----|

     E   S E   S E   E   S  E   S  E        E   S E   S E   S S S S E   E
Gb|--------------------------------------|------------------------------------|
Db|--------------------------------------|------------------------------------|
Ab|--7---7-7---7-7---10--10-10--10-10----|--7---7-7---7-7---5-5-5-5-5---------|
Eb|--------------------------------------|------------------------------5-----|

     E   S E   S E   E.    E.    E        E   S E   S E   S S S S E   E
Gb|------------------------------------|------------------------------------|
Db|------------------------------------|------------------------------------|
Ab|--7---7-7---7-10--12----10----9-----|--7---7-7---7-7---3-3-3-3-3---5-----|
Eb|------------------------------------|------------------------------------|

     E   S E   S E   E   S E   S E        E   S E   S E   S S S S E   E 
Gb|------------------------------------|------------------------------------|
Db|------------------------------------|------------------------------------|
Ab|--0---0-0---0-0---0---0-0---0-0-----|--0---0-0---0-0---5-5-5-5-5---------|
Eb|------------------------------------|------------------------------5-----|

     E   S E   S E   E   S E   S E        E   S E   S E   E   E   E   E
Gb|------------------------------------|------------------------------------|
Db|------------------------------------|------------------------------------|
Ab|------------------------------------|--------------------------0---2-----|
Eb|--0---0-0---0-0---0---0-0---0-0-----|--0---0-0---0-0---0---0-------------|

[Pre-Chorus 1]
     E.    E.    E.    S E   E   E        E.    E.    E.    S E   E   E
Gb|------------------------------------|------------------------------------|
Db|------------------------------------|------------------------------------|
Ab|--3-----7-----7-----7-7---7---7-----|--10----10----10----9-9---7---7-----|
Eb|------------------------------------|------------------------------------|

     E.    E.    E.    S  E   E   E        E.    E.    E.   S  E   Q
Gb|-------------------------------------|-------------------------------------|
Db|-------------------------------------|-------------------------------------|
Ab|--5-----9-----10----10-10--12--12----|--12----12----12---12-12--12\--------|
Eb|-------------------------------------|-------------------------------------|

     E.    E.    E.    S E   E   E        E.    E.    E.    S  E   E   E
Gb|------------------------------------|-------------------------------------|
Db|------------------------------------|-------------------------------------|
Ab|--3-----7-----7-----7-7---9---9-----|--10----10----10----10-10--10--9-----|
Eb|------------------------------------|-------------------------------------|

     E   E   E   E   E   E   Q            E   E   E   E   E   E   Q
Gb|------------------------------------|------------------------------------|
Db|------------------------------------|------------------------------------|
Ab|--5---5---5---5---5---5---5/--------|--17--17--17--17--17--17--17\-------|
Eb|------------------------------------|------------------------------------|

[Chorus 1]
     Q       E   E   Q       E   E        E   E   E   E   Q       E   E
Gb|------------------------------------|------------------------------------|
Db|------------------------------------|------------------------------------|
Ab|------------------------------------|--5---5---5-------------------------|
Eb|--0-------0---x---3-------3---x-----|--------------x---5-------5---x-----|

     Q       E   E   Q       E   E        E   E   E   E   H
Gb|------------------------------------|------------------------------------|
Db|------------------------------------|------------------------------------|
Ab|------------------------------------|--5---5---5-------------------------|
Eb|--0-------0---x---3-------3---x-----|--------------5---5\----------------|

     Q       Q       Q       E   E        E   E   E   E   Q       E   E
Gb|------------------------------------|------------------------------------|
Db|------------------------------------|------------------------------------|
Ab|------------------------------------|--5---5---5-------------------------|
Eb|--0-------0-------3-------3---x-----|--------------5---5-------5---5-----|

     E   E   E   E   E   E   E   E        E   E   E   E   E   E   E   E
Gb|------------------------------------|------------------------------------|
Db|------------------------------------|------------------------------------|
Ab|--3---3---3---3---3---3---0---3-----|--5---5---5---5---5---5---5---5-----|
Eb|------------------------------------|------------------------------------|

     W                                   +H               S S S S E   E
Gb|------------------------------------|------------------------------------|
Db|------------------------------------|------------------------------------|
Ab|------------------------------------|------------------5-5-5-5-5---------|
Eb|--0---------------------------------|------------------------------5-----|


[Verse 2]
     E   S E   S E   E   S E   S E        E   S S S S E   E   E   E   E
Gb|------------------------------------|------------------------------------|
Db|------------------------------------|------------------------------------|
Ab|------------------------------------|--7---7-7---7-----5-5-5-5-5---------|
Eb|--0---0-0---0-0---0---0-0---0-7-----|--------------5---------------5-----|

     E   S E   S E   E   S E   S E        E   S E   S E   S S S S E   E 
Gb|------------------------------------|------------------------------------|
Db|------------------------------------|------------------------------------|
Ab|------------------------------------|------------------3-3-3-3-3---5-----|
Eb|--0---0-0---0-0---0---0-0---0-0-----|--0---0-0---0-0---------------------|

     E   S E   S E   E   S E   S E        E   S E   S E   S S S S E   E 
Gb|------------------------------------|------------------------------------|
Db|------------------------------------|------------------------------------|
Ab|--0---0-0---0-0---0---0-0---0-0-----|--0---0-0---0-0---5-5-5-5-5---------|
Eb|------------------------------------|------------------------------5-----|

     E   S E   S E   E   S E   S E        E   S E   S E   E   S E   S E
Gb|------------------------------------|------------------------------------|
Db|------------------------------------|------------------------------------|
Ab|------------------------------------|------------------------------------|
Eb|--0---0-0---0-0---0---0-0---0-0-----|--0---0-0---0-0---0---0-0---0-0-----|

[Pre-Chorus 2]
     E.    E.    E.    S E   E   E        E.    E.    E.    S E   E   E
Gb|------------------------------------|------------------------------------|
Db|------------------------------------|------------------------------------|
Ab|--3-----7-----7-----7-7---7---7-----|--10----10----10----9-9---7---7-----|
Eb|------------------------------------|------------------------------------|

     E.    E.    E.    S  E   E   E        E.    E.    E.   S  E   Q
Gb|-------------------------------------|-------------------------------------|
Db|-------------------------------------|-------------------------------------|
Ab|--5-----9-----10----10-10--12--12----|--12----12----12---12-12--12\--------|
Eb|-------------------------------------|-------------------------------------|

     E.    E.    E.    S E   E   E        E.    E.    E.    S  E   E   E
Gb|------------------------------------|-------------------------------------|
Db|------------------------------------|-------------------------------------|
Ab|--3-----7-----7-----7-7---9---9-----|--10----10----10----10-10--10--9-----|
Eb|------------------------------------|-------------------------------------|

     E   E   E   E   E   E   E   E        E   E   E   E   E   E   E   E
Gb|------------------------------------|------------------------------------|
Db|------------------------------------|------------------------------------|
Ab|--5---5---5---5---5---5---5---5/----|--17--17--17--17--17--17--17--17\---|
Eb|------------------------------------|------------------------------------|

[Chorus 2]
     Q       E   E   Q       E   E        E   E   E   E   Q       E   E
Gb|------------------------------------|------------------------------------|
Db|------------------------------------|------------------------------------|
Ab|------------------------------------|--5---5---5-------------------------|
Eb|--0-------0---x---3-------3---x-----|--------------x---5-------5---0-----|

     Q       E   E   Q       E   E        E   E   E   E   H
Gb|------------------------------------|------------------------------------|
Db|------------------------------------|------------------------------------|
Ab|------------------------------------|--5---5---5-------------------------|
Eb|--0-------0---x---3-------3---x-----|--------------x---5\----------------|

     Q       Q       Q       E   E        E   E   E   E   E   E   E   E
Gb|------------------------------------|------------------------------------|
Db|------------------------------------|------------------------------------|
Ab|------------------------------x-----|--5---5---5-------------------------|
Eb|--0-------0-------3-------3---------|--------------5---5---5---5---5-----|

     E   E   E   E   E   E   E   E        E   E   E   E   E   E   E   E
Gb|------------------------------------|------------------------------------|
Db|------------------------------------|------------------------------------|
Ab|--3---3---3---3---3---3---3---3-----|--5---5---5---5---5---5---5---5-----|
Eb|------------------------------------|------------------------------------|

     Q       E   E   Q       E   E        E   E   E   E   Q       Q
Gb|------------------------------------|------------------------------------|
Db|------------------------------------|------------------------------------|
Ab|--7-------7-------------------------|--5---5---5-------------------------|
Eb|--------------x---3-------3---x-----|--------------x---5-------5---------|

     Q       E   E   Q       E   E        E   E   Q       Q.          E
Gb|------------------------------------|------------------------------------|
Db|------------------------------------|------------------------------------|
Ab|--7-------7-------------------------|--5---5---5-------------------------|
Eb|--------------x---3-------3---x-----|------------------5-----------5-----|

     Q       E   E   Q       E   E        E   E   E   E   Q       E   E
Gb|------------------------------------|------------------------------------|
Db|------------------------------------|------------------------------------|
Ab|--7-------7-------------------------|--5---5---5-------------------------|
Eb|--------------x---3-------3---x-----|--------------5---5-------5---5-----|

     E   E   E   E   E   E   E   E        E   E   E   E   E   E   E   E
Gb|------------------------------------|------------------------------------|
Db|------------------------------------|------------------------------------|
Ab|--3---3---3---3---3---3---2---3-----|--5---5---5---5---5---5---5---5-----|
Eb|------------------------------------|------------------------------------|

[Bridge]
     E  (Q.)        (H)                  (W)
Gb|------------------------------------|------------------------------------|
Db|------------------------------------|------------------------------------|
Ab|--7---------------------------------|------------------------------------|
Eb|------------------------------------|------------------------------------|

     E   S E   S E   E   S E   S E        E   S E   S E   E   S E   S E
Gb|------------------------------------|------------------------------------|
Db|------------------------------------|------------------------------------|
Ab|------------------------------------|------------------------------------|
Eb|--0---0-0---0-0---0---0-0---0-0-----|--0---0-0---0-0---0---0-0---0-0-----|

     E  (Q.)        (H)                  (Wx3)
Gb|------------------------------------|------------------------------------|
Db|------------------------------------|------------------------------------|
Ab|--7---------------------------------|------------------------------------|
Eb|------------------------------------|------------------------------------|

     E   S E   S E   E   S E   S E        E   S E   S E   E   S E   S E
Gb|------------------------------------|------------------------------------|
Db|------------------------------------|------------------------------------|
Ab|------------------------------------|------------------------------------|
Eb|--0---0-0---0-0---0---0-0---0-0-----|--3---3-3---3-3---3---3-3---3-3-----|

     E   S E   S E   E   S E   S E        E   S E   S E   E   S E   S E
Gb|------------------------------------|------------------------------------|
Db|------------------------------------|------------------------------------|
Ab|------------------------------------|--3---3-3---3-3---5---5-5---5-5-----|
Eb|--5---5-5---5-5---5---5-5---5-5-----|------------------------------------|

     E   S E   S E   E   S E   S E        E   S E   S E   E   E   E   E
Gb|------------------------------------|------------------------------------|
Db|------------------------------------|------------------------------------|
Ab|--7---7-7---7-7---7---7-7---7-7-----|--5---5-5---5-5---5---5---7---5-----|
Eb|------------------------------------|------------------------------------|

     E   S E   S E   E   S E   S E        E   S E   S E   E   S E   S E
Gb|------------------------------------|------------------------------------|
Db|------------------------------------|------------------------------------|
Ab|--4---4-4---4-4---4---4-4---4-4-----|--3---3-3---3-3---5---5-5---5-5-----|
Eb|------------------------------------|------------------------------------|

     E   S E   S E   E   S E   S E        E   S E   S E   E   S E   S E
Gb|------------------------------------|------------------------------------|
Db|------------------------------------|------------------------------------|
Ab|------------------------------------|------------------------------------|
Eb|--0---0-0---0-0---0---0-0---0-0-----|--3---3-3---3-3---3---3-3---3-3-----|

     E   S E   S E   E   S E   S E        E   S E   S E   E   S E   S E
Gb|------------------------------------|------------------------------------|
Db|------------------------------------|------------------------------------|
Ab|------------------------------------|--3---3-3---3-3---5---5-5---5-5-----|
Eb|--5---5-5---5-5---5---5-5---5-5-----|------------------------------------|

     E   S E   S E   E   S E   S E        E   S E   S E   E   S E   S E
Gb|------------------------------------|------------------------------------|
Db|------------------------------------|------------------------------------|
Ab|--7---7-7---7-7---7---7-7---7-7-----|------------------------------------|
Eb|------------------------------------|--3---3-3---3-3---3---3-3---3-3-----

     E   E   E   E   E   E   E   E        E   E   E   E   E   E   E   E
Gb|------------------------------------|------------------------------------|
Db|------------------------------------|------------------------------------|
Ab|------------------------------------|--3---3---3---3---5---5---5---5-----|
Eb|--5---5---5---5---5---5---5---5-----|------------------------------------|

[Pre-Chorus 3]
     E  (Q.)        (H)                  (Wx4)
Gb|------------------------------------|------------------------------------|
Db|------------------------------------|------------------------------------|
Ab|--3---------------------------------|------------------------------------|
Eb|------------------------------------|------------------------------------|

    (H.)                     Q            W
Gb|------------------------------------|------------------------------------|
Db|------------------------------------|------------------------------------|
Ab|------------------------------------|------------------------------------|
Eb|--------------------------7---------|-/10--------------------------------|

    +W                       Q
Gb|------------------------------------|
Db|------------------------------------|
Ab|------------------------------------|
Eb|--------------------------10\-------|

[Chorus 3]
     Q       E   E   Q       E   E        E   E   E   E   Q       Q
Gb|------------------------------------|------------------------------------|
Db|------------------------------------|------------------------------------|
Ab|------------------------------------|--5---5---5-------------------------|
Eb|--0-------0---x---3-------3---x-----|--------------x---5-------5---------|

     Q       E   E   Q       E   E        E   E   E   E   H
Gb|------------------------------------|------------------------------------|
Db|------------------------------------|------------------------------------|
Ab|------------------------------------|--5---5---5-------------------------|
Eb|--0-------0---x---3-------3---x-----|--------------x---5\----------------|

     Q       Q       Q       E   E        E   E   E   E   E   E   E   E
Gb|------------------------------------|------------------------------------|
Db|------------------------------------|------------------------------------|
Ab|------------------------------x-----|--5---5---5-------------------------|
Eb|--0-------0-------3-------3---------|--------------5---5---5---5---5-----|

     E   E   E   E   E   E   E   E        E   E   E   E   E   E   E   E
Gb|------------------------------------|------------------------------------|
Db|------------------------------------|------------------------------------|
Ab|--3---3---3---3---3---0---3---3-----|--5---5---5---5---5---5---5---5-----|
Eb|------------------------------------|------------------------------------|

     Q       E   E   Q       E   E        E   E   E   E   Q       Q
Gb|------------------------------------|------------------------------------|
Db|------------------------------------|------------------------------------|
Ab|--7-------7-------------------------|--5---5---5-------------------------|
Eb|--------------x---3-------3---x-----|--------------x---5-------5---------|

     Q       E   E   Q       E   E        E   E   E   E   Q       Q
Gb|------------------------------------|------------------------------------|
Db|------------------------------------|------------------------------------|
Ab|--7-------7-------------------------|--5---5---5-------------------------|
Eb|--------------x---3-------3---x-----|--------------x---5-------5---------|

     Q       E   E   Q       E   E        E   E   E   E   Q       Q
Gb|------------------------------------|------------------------------------|
Db|------------------------------------|------------------------------------|
Ab|--7-------7-------------------------|--5---5---5-------------------------|
Eb|--------------x---3-------3---x-----|--------------x---5-------5---------|

     E   E   E   E   E   E   E   E        E   E   E   E   E   E   E   E
Gb|------------------------------------|------------------------------------|
Db|------------------------------------|------------------------------------|
Ab|--3---3---3---3---3---3---2---3-----|--5---5---5---5---5---5---5---5-----|
Eb|------------------------------------|------------------------------------|

     E   E   E   E   E   E   E   E        E   E   E   E   E   E   E   E
Gb|------------------------------------|------------------------------------|
Db|------------------------------------|------------------------------------|
Ab|--3---3---2---2---0---0-------------|--5---5---5---5---5---5---5---5/----|
Eb|--------------------------3---3-----|------------------------------------|

     E   E   E   E   E   E   E   E        E   E   E   E   E   E   E   E
Gb|------------------------------------|------------------------------------|
Db|------------------------------------|------------------------------------|
Ab|--15--15--14--14--12--12--10--10----|--17--17--17--17--17--17--17--17----|
Eb|------------------------------------|------------------------------------|

[Outro]
     W                                   +H               S S S S E   E
Gb|------------------------------------|------------------------------------|
Db|------------------------------------|------------------------------------|
Ab|------------------------------------|------------------5-5-5-5-5---------|
Eb|--0---------------------------------|------------------------------5-----|

     E
Gb|------------------------------------||
Db|------------------------------------||
Ab|------------------------------------||
Eb|--0---------------------------------||


************************************

|  x   Dead note
|  \   Slide down
|  /   Slide up
|  S   Sixteenth note
|  E   Eighth note
|  Q   Quarter note
|  H   Half note
|  W   Whole note
|  .   Dotted note
| (N)  Rest
|  +   Add note value
|o o|  Reprise

************************************
Suggest correction
Creating personal tab
Creating personal tab
You can edit any tab online and save it as your Personal.

You can edit, replace or remove any tab part or add personal notes – all changes will be seen only by you.

Personal tabs can be accessed anytime from any device, even offline.
Learn more »
Give kudos to tab author, rate the tab!
1 2 3 4 5
comments
print report bad tab
guest
You may want to rate the tab now too:
select rating
Wanna post a correction for this tab? Suggest correction