Oops, an error
Loading. Please wait.

Welcome To The Breakdown tab

version 2
version 2

Whole song

  • This tab only has the rhythm guitar in it.

Interactive

16 views 9 this week
no commentswrite comment
1 2 3 4 5
3 more votes to show rating
add to favorites
×
Save as Personal and add changes to this tab that will be seen only by you. Learn more ›
×
You can save this tab as Personal to edit and correct it or add notes. All changes will be seen only by you. Learn more »
launch autoscroll
font size
0
reset
how to read this tab
guitar tuner
edit
Autoscroll
slow
fast
+/-
esc
set tempo
stop
Artist: Rise Against
Song: Welcome To The Breakdown
Album: Wolves (2017)

Guitar 1 (Eb Ab Db Gb Bb eb) - 'Tim McIlrath - Distorion, Rhythm'
Guitar 2 (Eb Ab Db Gb Bb eb) - 'Zach Blair - Distortion, Rhythm'
Guitar 3 (Eb Ab Db Gb Bb eb) - 'Zach Blair - Distortion, Lead w/ Wah'
Guitar 1 (Eb Ab Db Gb Bb eb) - 'Tim McIlrath - Clean, Rhythm'

[Intro]
    2/4                   4/4
    Guitar 1
      S S S S E   E         E   S E   S E   E   S E   S E        E   S E   S E   S S S S E   E     (x4)
eb||---------------------|------------------------------------|------------------------------------|
Bb||---------------------|o-----------------------------------|-----------------------------------o|
Gb||--7-7-7-7-7----------|--9---9-9---9-9---9---9-9---9-9-----|--9---9-9---9-9---7-7-7-7-7---------|
Db||--7-7-7-7-7---7------|--9---9-9---9-9---9---9-9---9-9-----|--9---9-9---9-9---7-7-7-7-7---7-----|
Ab||--------------7------|o-----------------------------------|------------------------------7----o|
Eb||---------------------|------------------------------------|------------------------------------|

[Verse 1]
   Gtr 1 & 2
     E   S E   S E   E   S E   S E        E   S E   S E   S S S S E   E
eb|------------------------------------|------------------------------------|
Bb|------------------------------------|------------------------------------|
Gb|--9---9-9---9-9---9---9-9---9-9-----|--9---9-9---9-9---7-7-7-7-7---------|
Db|--9---9-9---9-9---9---9-9---9-9-----|--9---9-9---9-9---7-7-7-7-7---7-----|
Ab|--7---7-7---7-7---7---7-7---7-7-----|--7---7-7---7-7---5-5-5-5-5---7-----|
Eb|------------------------------------|------------------------------5-----|

     E   S E   S E   E   S E   S E        E   S E   S E   S S S S E   E
eb|------------------------------------|------------------------------------|
Bb|------------------------------------|------------------------------------|
Gb|--9---9-9---9-9---9---9-9---9-9-----|--9---9-9---9-9---5-5-5-5-5---7-----|
Db|--9---9-9---9-9---9---9-9---9-9-----|--9---9-9---9-9---5-5-5-5-5---7-----|
Ab|--7---7-7---7-7---7---7-7---7-7-----|--7---7-7---7-7---3-3-3-3-3---5-----|
Eb|------------------------------------|------------------------------------|

     E   S E   S E   E   S E   S E        E   S E   S E   S S S S E   E
eb|------------------------------------|------------------------------------|
Bb|------------------------------------|------------------------------------|
Gb|------------------------------------|------------------7-7-7-7-7---------|
Db|--7---7-7---7-7---7---7-7---7-7-----|--7---7-7---7-7---7-7-7-7-7---7-----|
Ab|--7---7-7---7-7---7---7-7---7-7-----|--7---7-7---7-7---5-5-5-5-5---7-----|
Eb|--5---5-5---5-5---5---5-5---5-5-----|--5---5-5---5-5---------------5-----|

     E   S E   S E   E   S E   S E        E   S E   S E   S S S S E   E
eb|------------------------------------|------------------------------------|
Bb|------------------------------------|------------------------------------|
Gb|--9---9-9---9-9---9---9-9---9-9-----|--9---9-9---9-9---7-7-7-7-7---------|
Db|--9---9-9---9-9---9---9-9---9-9-----|--9---9-9---9-9---7-7-7-7-7---7-----|
Ab|--7---7-7---7-7---7---7-7---7-7-----|--7---7-7---7-7---5-5-5-5-5---7-----|
Eb|------------------------------------|------------------------------5-----|

     E   S E   S E   E   S E   S E        E   S E   S E   S S S S E   E
eb|------------------------------------|------------------------------------|
Bb|------------------------------------|------------------------------------|
Gb|--9---9-9---9-9---9---9-9---9-9-----|--9---9-9---9-9---7-7-7-7-7---------|
Db|--9---9-9---9-9---9---9-9---9-9-----|--9---9-9---9-9---7-7-7-7-7---7-----|
Ab|--7---7-7---7-7---7---7-7---7-7-----|--7---7-7---7-7---5-5-5-5-5---7-----|
Eb|------------------------------------|------------------------------5-----|

     E   S E   S E   E   S E   S E        E   S E   S E   S S S S E   E
eb|------------------------------------|------------------------------------|
Bb|------------------------------------|------------------------------------|
Gb|--9---9-9---9-9---9---9-9---9-9-----|--9---9-9---9-9---5-5-5-5-5---7-----|
Db|--9---9-9---9-9---9---9-9---9-9-----|--9---9-9---9-9---5-5-5-5-5---7-----|
Ab|--7---7-7---7-7---7---7-7---7-7-----|--7---7-7---7-7---3-3-3-3-3---5-----|
Eb|------------------------------------|------------------------------------|

     E   S E   S E   E   S E   S E        E   S E   S E   S S S S E   E
eb|------------------------------------|------------------------------------|
Bb|------------------------------------|------------------------------------|
Gb|------------------------------------|------------------7-7-7-7-7---------|
Db|--7---7-7---7-7---7---7-7---7-7-----|--7---7-7---7-7---7-7-7-7-7---7-----|
Ab|--7---7-7---7-7---7---7-7---7-7-----|--7---7-7---7-7---5-5-5-5-5---7-----|
Eb|--5---5-5---5-5---5---5-5---5-5-----|--5---5-5---5-5---------------5-----|

     E   S E   S E   E   S E   S E        E   S E   S E   E   S E   S E
eb|------------------------------------|------------------------------------|
Bb|------------------------------------|------------------------------------|
Gb|--9---9-9---9-9---9---9-9---9-9-----|--9---9-9---9-9---9---9-9---9-9-----|
Db|--9---9-9---9-9---9---9-9---9-9-----|--9---9-9---9-9---9---9-9---9-9-----|
Ab|--7---7-7---7-7---7---7-7---7-7-----|--7---7-7---7-7---7---7-7---7-7-----|
Eb|------------------------------------|------------------------------------|

[Pre-Chorus 1]
   Gtr 1  
     E   S E   S E.    S E   E   E        E   S E   S E.    S E   E   E
eb|------------------------------------|------------------------------------|
Bb|------------------------------------|------------------------------------|
Gb|--5---5-5---5-5-----5-5---5---5-----|------------------------------------|
Db|--5---5-5---5-5-----5-5---5---5-----|--5---5-5---5-5-----5-5---5---5-----|
Ab|--3---3-3---3-3-----3-3---3---3-----|--5---5-5---5-5-----5-5---5---5-----|
Eb|------------------------------------|--3---3-3---3-3-----3-3---3---3-----|
  |                                    |                                    |
  |Gtr 3                               |                                    |
  |  E   S E.    E.    S E   E   E     |  E   S E.    E.    S E   E   E     |
eb|------------------------------------|------------------------------------|
Bb|------------------------------------|------------------------------------|
Gb|--9---9-9-----9-----9-9---9---9-----|--9\--4-4-----4-----4-4---4---4-----|
Db|--x---x-x-----x-----x-x---x---x-----|--x---x-x-----x-----x-x---x---x-----|
Ab|--7---7-7-----7-----7-7---7---7-----|--7\--2-2-----2-----2-2---2---2-----|
Eb|------------------------------------|------------------------------------|

     E   S  E   S E.    S E   E   E        E   S E   S E.    S E   E   E
eb|-------------------------------------|------------------------------------|
Bb|-------------------------------------|------------------------------------|
Gb|--7---7--7---7-7-----7-7---7---7-----|------------------------------------|
Db|--7---7--7---7-7-----7-7---7---7-----|--7---7-7---7-7-----7-7---7---7-----|
Ab|--5---5--5---5-5-----5-5---5---5-----|--7---7-7---7-7-----7-7---7---7-----|
Eb|-------------------------------------|--5---5-5---5-5-----5-5---5---5-----|
  |                                     |                                    |
  |  E   S  E.    E   E   E   E   E     |  E   S E.    E.    S E   E   E     |
eb|-------------------------------------|------------------------------------|
Bb|-------------------------------------|------------------------------------|
Gb|--11--11-11----11--12--12--11--11----|--9---9-9-----9-----9-9---9---9-----|
Db|--x---x--x-----x---x---x---x---x-----|--x---x-x-----x-----x-x---x---x-----|
Ab|--9---9--9-----9---10--10--9---9-----|--7---7-7-----7-----7-7---7---7-----|
Eb|-------------------------------------|------------------------------------|

     E   S E   S E.    S E   E   E        E   S E   S E.    S E   E   E
eb|------------------------------------|------------------------------------|
Bb|------------------------------------|------------------------------------|
Gb|--5---5-5---5-5-----5-5---5---5-----|------------------------------------|
Db|--5---5-5---5-5-----5-5---5---5-----|--5---5-5---5-5-----5-5---5---5-----|
Ab|--3---3-3---3-3-----3-3---3---3-----|--5---5-5---5-5-----5-5---5---5-----|
Eb|------------------------------------|--3---3-3---3-3-----3-3---3---3-----|
  |                                    |                                    |
  |  E   S E.    E.    S E   E   E     |  E   S E.    E.    S E   E   E     |
eb|------------------------------------|------------------------------------|
Bb|------------------------------------|------------------------------------|
Gb|--9---9-9-----9-----9-9---9---9-----|--9\--4-4-----4-----4-4---4---4-----|
Db|--x---x-x-----x-----x-x---x---x-----|--x---x-x-----x-----x-x---x---x-----|
Ab|--7---7-7-----7-----7-7---7---7-----|--7\--2-2-----2-----2-2---2---2-----|
Eb|------------------------------------|------------------------------------|

     Q       E   E   E   E   E   E        E   E   E   E   E   E   E   E
eb|------------------------------------|------------------------------------|
Bb|------------------------------------|------------------------------------|
Gb|--7-------7---7---7---7---7---7-----|--7---7---7---7---7---7---7---7-----|
Db|--7-------7---7---7---7---7---7-----|--7---7---7---7---7---7---7---7-----|
Ab|--5-------5---5---5---5---5---5-----|--5---5---5---5---5---5---5---5-----|
Eb|------------------------------------|------------------------------------|
  |                                    |                                    |
  |  Q       E   E   E   E   E   E     |  E   E   E   E   E   E   E   E     |
eb|------------------------------------|------------------------------------|
Bb|------------------------------------|------------------------------------|
Gb|--11------11--11--11--11--11--11----|--11--11--11--11--11-/12--11--9-----|
Db|--x-------x---x---x---x---x---x-----|--x---x---x---x---x---x---x---x-----|
Ab|--9-------9---9---9---9---9---9-----|--9---9---9---9---9--/10--9---7-----|
Eb|------------------------------------|------------------------------------|

[Chorus 1]
   Gtr 1
     Q   Q   Q   Q        E E Q   Q   Q        Q   Q   Q   Q        E E Q   Q   Q
eb|--------------------|--------------------|--------------------|--------------------|
Bb|--------------------|--------------------|--------------------|--------------------|
Gb|--------------------|--7-7-7-------------|--9---9-------------|--7-7-7-------------|
Db|--2---2---5---5-----|--7-7-7---7---7-----|--9---9---5---5-----|--7-7-7---7---7-----|
Ab|--2---2---5---5-----|--5-5-5---7---7-----|--7---7---5---5-----|--5-5-5---7---7-----|
Eb|--0---0---3---3-----|----------5---5-----|----------3---3-----|----------5---5-----|
  |                    |                    |                    |                    |
  |Gtr 2               |                    |                    |                    |
  |  Q   E E Q   E E   |  E E E Q   E E E   |  Q   E E E E E E   |  Q   E E E E E E   |
eb|--0---0-0-0---0-0---|--0-0-0-0---0-0-0---|--0---0-0-7-7-7-7---|--5---5-5-5-5-5-5---|
Bb|--5---5-5-5---5-5---|--5-7-8-7---5-5-5---|--5---5-5-5-5-5-5---|--5---5-5-5-5-5-5---|
Gb|--------------------|--------------------|--------------------|--------------------|
Db|--------------------|--------------------|--------------------|--------------------|
Ab|--------------------|--------------------|--------------------|--------------------|
Eb|--------------------|--------------------|--------------------|--------------------|

                                             [The root chords for this bit are C5 and then D5]
     Q   Q   Q   Q        E E Q   Q   Q        E E E E E E E E      E  E  E  E  E  E  E  E
eb|--------------------|--------------------|--------------------|----------------------------|
Bb|--------------------|--------------------|--------------------|----------------------------|
Gb|--------------------|--7-7-7-------------|--9-9-9-7-7-7-9-9---|--11-11-11-12-12-12-11-11---|
Db|--2---2---5---5-----|--7-7-7---7---7-----|--x-x-x-x-x-x-x-x---|--x--x--x--x--x--x--x--x----|
Ab|--2---2---5---5-----|--5-5-5---7---7-----|--7-7-7-5-5-5-7-7---|--9--9--9--10-10-10-9--9----|
Eb|--0---0---3---3-----|----------5---5-----|--------------------|----------------------------|
  |                    |                    |                    |                            |
  |  Q   E E Q   E E   |  E E E Q   E E E   |  Q   E E E E E E   |  Q     E  E  E  E  E  E    |
eb|--0---0-0-0---0-0---|--0-0-0-0---0-0-0---|--0---0-0-7-7-7-7---|--5-----5--5--5--5--5--5----|
Bb|--5---5-5-5---5-5---|--5-7-8-7---5-5-5---|--5---5-5-5-5-5-5---|--5-----5--5--5--5--5--5----|
Gb|--------------------|--------------------|--------------------|----------------------------|
Db|--------------------|--------------------|--------------------|----------------------------|
Ab|--------------------|--------------------|--------------------|----------------------------|
Eb|--------------------|--------------------|--------------------|----------------------------|

     W                                   +H               S S S S E   E
eb|------------------------------------|------------------------------------|
Bb|------------------------------------|------------------------------------|
Gb|--9---------------------------------|------------------7-7-7-7-7---------|
Db|--9---------------------------------|------------------7-7-7-7-7---7-----|
Ab|--7---------------------------------|------------------5-5-5-5-5---7-----|
Eb|------------------------------------|------------------------------5-----|
  |                                    |                                    |
  |  W                                 | +H               S S S S E   E     |
eb|--0---------------------------------|------------------------------------|
Bb|--0---------------------------------|------------------------------------|
Gb|--x---------------------------------|------------------7-7-7-7-7---------|
Db|--2---------------------------------|------------------7-7-7-7-7---7-----|
Ab|--2---------------------------------|------------------5-5-5-5-5---7-----|
Eb|--0---------------------------------|------------------------------5-----|

[Verse 2]
   Gtr 1
     W                                   +W
eb|------------------------------------|------------------------------------|
Bb|------------------------------------|------------------------------------|
Gb|--9---------------------------------|------------------------------------|
Db|--9---------------------------------|------------------------------------|
Ab|--7---------------------------------|------------------------------------|
Eb|------------------------------------|------------------------------------|
  |                                    |                                    |
  |Gtr 2                               |                                    |
  |  W                                 | +W                                 |
eb|--0---------------------------------|------------------------------------|
Bb|--0---------------------------------|------------------------------------|
Gb|--x---------------------------------|------------------------------------|
Db|--2---------------------------------|------------------------------------|
Ab|--2---------------------------------|------------------------------------|
Eb|--0---------------------------------|------------------------------------|

    +W                                   +H               S S S S E   E
eb|------------------------------------|------------------------------------|
Bb|------------------------------------|------------------------------------|
Gb|------------------------------------|------------------5-5-5-5-5---7-----|
Db|------------------------------------|------------------5-5-5-5-5---7-----|
Ab|------------------------------------|------------------3-3-3-3-3---5-----|
Eb|------------------------------------|------------------------------------|
  |                                    |                                    |
  |  H               H                 | +H               S S S S E   E     |
eb|------------------------------------|------------------------------------|
Bb|------------------------------------|------------------------------------|
Gb|-[7]--------------------------------|------------------5-5-5-5-5---7-----|
Db|-----------------[7]----------------|------------------5-5-5-5-5---7-----|
Ab|-----------------[7]----------------|------------------3-3-3-3-3---5-----|
Eb|------------------------------------|------------------------------------|

   Gtr 1 & 2
     E   S E   S E   E   S E   S E        E   S E   S E   S S S S E   E
eb|------------------------------------|------------------------------------|
Bb|------------------------------------|------------------------------------|
Gb|------------------------------------|------------------7-7-7-7-7---------|
Db|--7---7-7---7-7---7---7-7---7-7-----|--7---7-7---7-7---7-7-7-7-7---7-----|
Ab|--7---7-7---7-7---7---7-7---7-7-----|--7---7-7---7-7---5-5-5-5-5---7-----|
Eb|--5---5-5---5-5---5---5-5---5-5-----|--5---5-5---5-5---------------5-----|
PM|  .   . .   . .   .   . .   . .     |  .   . .   . .

     E   S E   S E   E   S E   S E        E   S E   S E   E   S E   S E
eb|------------------------------------|------------------------------------|
Bb|------------------------------------|------------------------------------|
Gb|--9---9-9---9-9---9---9-9---9-9-----|--9---9-9---9-9---9---9-9---9-9-----|
Db|--9---9-9---9-9---9---9-9---9-9-----|--9---9-9---9-9---9---9-9---9-9-----|
Ab|--7---7-7---7-7---7---7-7---7-7-----|--7---7-7---7-7---7---7-7---7-7-----|
Eb|------------------------------------|------------------------------------|

[Pre-Chorus 2] Same as Pre-Chorus 1
   Gtr 1  
     E   S E   S E.    S E   E   E        E   S E   S E.    S E   E   E
eb|------------------------------------|------------------------------------|
Bb|------------------------------------|------------------------------------|
Gb|--5---5-5---5-5-----5-5---5---5-----|------------------------------------|
Db|--5---5-5---5-5-----5-5---5---5-----|--5---5-5---5-5-----5-5---5---5-----|
Ab|--3---3-3---3-3-----3-3---3---3-----|--5---5-5---5-5-----5-5---5---5-----|
Eb|------------------------------------|--3---3-3---3-3-----3-3---3---3-----|
  |                                    |                                    |
  |Gtr 3                               |                                    |
  |  E   S E.    E.    S E   E   E     |  E   S E.    E.    S E   E   E     |
eb|------------------------------------|------------------------------------|
Bb|------------------------------------|------------------------------------|
Gb|--9---9-9-----9-----9-9---9---9-----|--9\--4-4-----4-----4-4---4---4-----|
Db|--x---x-x-----x-----x-x---x---x-----|--x---x-x-----x-----x-x---x---x-----|
Ab|--7---7-7-----7-----7-7---7---7-----|--7\--2-2-----2-----2-2---2---2-----|
Eb|------------------------------------|------------------------------------|

     E   S  E   S E.    S E   E   E        E   S E   S E.    S E   E   E
eb|-------------------------------------|------------------------------------|
Bb|-------------------------------------|------------------------------------|
Gb|--7---7--7---7-7-----7-7---7---7-----|------------------------------------|
Db|--7---7--7---7-7-----7-7---7---7-----|--7---7-7---7-7-----7-7---7---7-----|
Ab|--5---5--5---5-5-----5-5---5---5-----|--7---7-7---7-7-----7-7---7---7-----|
Eb|-------------------------------------|--5---5-5---5-5-----5-5---5---5-----|
  |                                     |                                    |
  |  E   S  E.    E   E   E   E   E     |  E   S E.    E.    S E   E   E     |
eb|-------------------------------------|------------------------------------|
Bb|-------------------------------------|------------------------------------|
Gb|--11--11-11----11--12--12--11--11----|--9---9-9-----9-----9-9---9---9-----|
Db|--x---x--x-----x---x---x---x---x-----|--x---x-x-----x-----x-x---x---x-----|
Ab|--9---9--9-----9---10--10--9---9-----|--7---7-7-----7-----7-7---7---7-----|
Eb|-------------------------------------|------------------------------------|

     E   S E   S E.    S E   E   E        E   S E   S E.    S E   E   E
eb|------------------------------------|------------------------------------|
Bb|------------------------------------|------------------------------------|
Gb|--5---5-5---5-5-----5-5---5---5-----|------------------------------------|
Db|--5---5-5---5-5-----5-5---5---5-----|--5---5-5---5-5-----5-5---5---5-----|
Ab|--3---3-3---3-3-----3-3---3---3-----|--5---5-5---5-5-----5-5---5---5-----|
Eb|------------------------------------|--3---3-3---3-3-----3-3---3---3-----|
  |                                    |                                    |
  |  E   S E.    E.    S E   E   E     |  E   S E.    E.    S E   E   E     |
eb|------------------------------------|------------------------------------|
Bb|------------------------------------|------------------------------------|
Gb|--9---9-9-----9-----9-9---9---9-----|--9\--4-4-----4-----4-4---4---4-----|
Db|--x---x-x-----x-----x-x---x---x-----|--x---x-x-----x-----x-x---x---x-----|
Ab|--7---7-7-----7-----7-7---7---7-----|--7\--2-2-----2-----2-2---2---2-----|
Eb|------------------------------------|------------------------------------|

     Q       E   E   E   E   E   E        E   E   E   E   E   E   E   E
eb|------------------------------------|------------------------------------|
Bb|------------------------------------|------------------------------------|
Gb|--7-------7---7---7---7---7---7-----|--7---7---7---7---7---7---7---7-----|
Db|--7-------7---7---7---7---7---7-----|--7---7---7---7---7---7---7---7-----|
Ab|--5-------5---5---5---5---5---5-----|--5---5---5---5---5---5---5---5-----|
Eb|------------------------------------|------------------------------------|
  |                                    |                                    |
  |  Q       E   E   E   E   E   E     |  E   E   E   E   E   E   E   E     |
eb|------------------------------------|------------------------------------|
Bb|------------------------------------|------------------------------------|
Gb|--11------11--11--11--11--11--11----|--11--11--11--11--11-/12--11--9-----|
Db|--x-------x---x---x---x---x---x-----|--x---x---x---x---x---x---x---x-----|
Ab|--9-------9---9---9---9---9---9-----|--9---9---9---9---9--/10--9---7-----|
Eb|------------------------------------|------------------------------------|

[Chorus 2]
   Gtr 1
     Q   Q   Q   Q        E E Q   Q   Q        Q   Q   Q   Q        E E Q   Q   Q
eb|--------------------|--------------------|--------------------|--------------------|
Bb|o-------------------|--------------------|--------------------|--------------------|
Gb|--------------------|--7-7-7-------------|--------------------|--7-7-7-------------|
Db|--2---2---5---5-----|--7-7-7---7---7-----|--2---2---5---5-----|--7-7-7---7---7-----|
Ab|o-2---2---5---5-----|--5-5-5---7---7-----|--2---2---5---5-----|--5-5-5---7---7-----|
Eb|--0---0---3---3-----|----------5---5-----|--0---0---3---3-----|----------5---5-----|
  |                    |                    |                    |                    |
  |Gtr 2               |                    |                    |                    |
  |  Q   E E Q   E E   |  E E E Q   E E E   |  Q   E E E E E E   |  Q   E E E E E E   |
eb|--0---0-0-0---0-0---|--0-0-0-0---0-0-0---|--0---0-0-7-7-7-7---|--5---5-5-5-5-5-5---|
Bb|o-5---5-5-5---5-5---|--5-7-8-7---5-5-5---|--5---5-5-5-5-5-5---|--5---5-5-5-5-5-5---|
Gb|--------------------|--------------------|--------------------|--------------------|
Db|--------------------|--------------------|--------------------|--------------------|
Ab|o-------------------|--------------------|--------------------|--------------------|
Eb|--------------------|--------------------|--------------------|--------------------|


     Q   Q   Q   Q        E E Q   Q   Q        E E E E E E E E      E  E  E  E  E  E  E  E    (x2)
eb|--------------------|--------------------|--------------------|----------------------------|
Bb|--------------------|--------------------|--------------------|----------------------------|
Gb|--9---9-------------|--7-7-7-------------|--9-9-9-7-7-7-9-9---|--11-11-11-12-12-12-11-11--o|
Db|--9---9---5---5-----|--7-7-7---7---7-----|--x-x-x-x-x-x-x-x---|--x--x--x--x--x--x--x--x----|
Ab|--7---7---5---5-----|--5-5-5---7---7-----|--7-7-7-5-5-5-7-7---|--9--9--9--10-10-10-9--9---o|
Eb|----------3---3-----|----------5---5-----|--------------------|----------------------------|
  |                    |                    |                    |                            |
  |  Q   E E Q   E E   |  E E E Q   E E E   |  Q   E E E E E E   |  Q     E  E  E  E  E  E    |
eb|--0---0-0-0---0-0---|--0-0-0-0---0-0-0---|--0---0-0-7-7-7-7---|--5-----5--5--5--5--5--5----|
Bb|--5---5-5-5---5-5---|--5-7-8-7---5-5-5---|--5---5-5-5-5-5-5---|--5-----5--5--5--5--5--5---o|
Gb|--------------------|--------------------|--------------------|----------------------------|
Db|--------------------|--------------------|--------------------|----------------------------|
Ab|--------------------|--------------------|--------------------|---------------------------o|
Eb|--------------------|--------------------|--------------------|----------------------------|

[Bridge]
   Gtr 1 & 2
     E  (Q.)        (H)                  (W)
eb|------------------------------------|------------------------------------|
Bb|------------------------------------|------------------------------------|
Gb|--9---------------------------------|------------------------------------|
Db|--9---------------------------------|------------------------------------|
Ab|--7---------------------------------|------------------------------------|
Eb|------------------------------------|------------------------------------|
  |                                    |                                    |
  |Gtr 4                               |                                    |
  |  E   E   E   E   E   E   E   E     |  E   E   E   E   E   E   E   E     |
eb|------------------------------------|------------------------------------|
Bb|------8---7---8-------8---7---8-----|------8---7---8-------8---7---8-----|
Gb|--9---------------9-----------------|--9---------------9-----------------|
Db|------------------------------------|------------------------------------|
Ab|------------------------------------|------------------------------------|
Eb|------------------------------------|------------------------------------|


eb|------------------------------------|------------------------------------|
Bb|------------------------------------|------------------------------------|
Gb|------------------------------------|------------------------------------|
Db|--2---2-2---2-2---2---2-2---2-2-----|--2---2-2---2-2---2---2-2---2-2-----|
Ab|--2---2-2---2-2---2---2-2---2-2-----|--2---2-2---2-2---2---2-2---2-2-----|
Eb|--0---0-0---0-0---0---0-0---0-0-----|--0---0-0---0-0---0---0-0---0-0-----|
  |                                    |                                    |
  |  E   E   E   E   E   E   E   E     |  E   E   E   E   E   E   E   E     |
eb|------------------------------------|------------------------------------|
Bb|------8---7---8-------8---7---8-----|------8---7---8-------8---7---8-----|
Gb|--9---------------9-----------------|--9---------------9-----------------|
Db|------------------------------------|------------------------------------|
Ab|------------------------------------|------------------------------------|
Eb|------------------------------------|------------------------------------|

     E  (Q.)        (H)                  (W)                                (x3)
eb|------------------------------------|------------------------------------|
Bb|------------------------------------|o----------------------------------o|
Gb|------------------------------------|------------------------------------|
Db|--2---------------------------------|------------------------------------|
Ab|--2---------------------------------|o----------------------------------o|
Eb|--0---------------------------------|------------------------------------|
  |                                    |                                    |
  |  E   E   E   E   E   E   E   E     |  E   E   E   E   E   E   E   E     |
eb|------------------------------------|------------------------------------|
Bb|------8---7---8-------8---7---8-----|o-----8---7---8-------8---7---8----o|
Gb|--9---------------9-----------------|--9---------------9-----------------|
Db|------------------------------------|------------------------------------|
Ab|------------------------------------|o----------------------------------o|
Eb|------------------------------------|------------------------------------|

     E   S E   S E   E   S E   S E        E   S E   S E   E   S E   S E
eb|------------------------------------|------------------------------------|
Bb|o-----------------------------------|------------------------------------|
Gb|------------------------------------|------------------------------------|
Db|--2---2-2---2-2---2---2-2---2-2-----|--5---5-5---5-5---5---5-5---5-5-----|
Ab|o-2---2-2---2-2---2---2-2---2-2-----|--5---5-5---5-5---5---5-5---5-5-----|
Eb|--0---0-0---0-0---0---0-0---0-0-----|--3---3-3---3-3---3---3-3---3-3-----|
  |                                    |                                    |
  |  E   E   E   E   E   E   E   E     |  E   E   E   E   E   E   E   E     |
eb|------------------------------------|------------------------------------|
Bb|o-----8---7---8-------8---7---8-----|------8---7---8-------8---7---8-----|
Gb|--9---------------9-----------------|--9---------------9-----------------|
Db|------------------------------------|------------------------------------|
Ab|o-----------------------------------|------------------------------------|
Eb|------------------------------------|------------------------------------|

     E   S E   S E   E   S E   S E        E   S E   S E   E   S E   S E     (x2)
eb|------------------------------------|------------------------------------|
Bb|------------------------------------|-----------------------------------o|
Gb|------------------------------------|--5---5-5---5-5---7---7-7---7-7-----|
Db|--7---7-7---7-7---7---7-7---7-7-----|--5---5-5---5-5---7---7-7---7-7-----|
Ab|--7---7-7---7-7---7---7-7---7-7-----|--3---3-3---3-3---5---5-5---5-5----o|
Eb|--5---5-5---5-5---5---5-5---5-5-----|------------------------------------|
  |                                    |                                    |
  |  E   E   E   E   E   E   E   E     |  E   E   E   E   E   E   E   E     |
eb|------------------------------------|------------------------------------|
Bb|------8---7---8-------8---7---8-----|------8---7---8-------8---7---8----o|
Gb|--9---------------9-----------------|--9---------------9-----------------|
Db|------------------------------------|------------------------------------|
Ab|------------------------------------|-----------------------------------o|
Eb|------------------------------------|------------------------------------|

   Gtr 1
     E   S E   S E   E   S E   S E        E   S E   S E   E   S E   S E
eb|------------------------------------|------------------------------------|
Bb|------------------------------------|------------------------------------|
Gb|------------------------------------|------------------------------------|
Db|--2---2-2---2-2---2---2-2---2-2-----|--5---5-5---5-5---5---5-5---5-5-----|
Ab|--2---2-2---2-2---2---2-2---2-2-----|--5---5-5---5-5---5---5-5---5-5-----|
Eb|--0---0-0---0-0---0---0-0---0-0-----|--3---3-3---3-3---3---3-3---3-3-----|
  |                                    |                                    |
  |Gtr 2                               |                                    |
  |  E   Q       Q       Q       E     |  E   Q       Q       Q       E     |
eb|--0---0-------0-------0-------0-----|--0---0-------0-------0-------------|
Bb|--12--12------12------10------8-----|--12--12------12------10------15----|
Gb|------------------------------------|------------------------------12----|
Db|------------------------------------|------------------------------------|
Ab|------------------------------------|------------------------------------|
Eb|------------------------------------|------------------------------------|

     E   S E   S E   E   S E   S E        E   S E   S E   E   S E   S E
eb|------------------------------------|------------------------------------|
Bb|------------------------------------|------------------------------------|
Gb|------------------------------------|--5---5-5---5-5---7---7-7---7-7-----|
Db|--7---7-7---7-7---7---7-7---7-7-----|--5---5-5---5-5---7---7-7---7-7-----|
Ab|--7---7-7---7-7---7---7-7---7-7-----|--3---3-3---3-3---5---5-5---5-5-----|
Eb|--5---5-5---5-5---5---5-5---5-5-----|------------------------------------|
  |                                    |                                    |
  |  E   Q       Q       E   E   E     |  E     E.    E   E     E.    E     |
eb|------------------------------------|------------------------------------|
Bb|--15--15------15------15--13--12----|--13----13----13--15----15----15----|
Gb|--12--12------12------12--12--12----|--12----12----12--14----14----14----|
Db|------------------------------------|------------------------------------|
Ab|------------------------------------|------------------------------------|
Eb|------------------------------------|------------------------------------|

     E   S E   S E   E   S E   S E        E   S E   S E   E   S E   S E
eb|------------------------------------|------------------------------------|
Bb|------------------------------------|------------------------------------|
Gb|------------------------------------|------------------------------------|
Db|--2---2-2---2-2---2---2-2---2-2-----|--5---5-5---5-5---5---5-5---5-5-----|
Ab|--2---2-2---2-2---2---2-2---2-2-----|--5---5-5---5-5---5---5-5---5-5-----|
Eb|--0---0-0---0-0---0---0-0---0-0-----|--3---3-3---3-3---3---3-3---3-3-----|
  |                                    |                                    |
  |  E   Q       Q       Q       E     |  E   Q       Q       Q       E     |
eb|------------------------------------|------------------------------------|
Bb|------------------------------------|------------------------------------|
Gb|--16--16------16------14------12----|--16--16------16------14------12----|
Db|--x---x-------x-------x-------x-----|--x---x-------x-------x-------x-----|
Ab|--14--14------14------12------10----|--14--14------14------12------10----|
Eb|------------------------------------|------------------------------------|


     E   E   E   E   E   E   E   E        E   E   E   E   E   E   E   E
eb|------------------------------------|------------------------------------|
Bb|------------------------------------|------------------------------------|
Gb|------------------------------------|--5---5---5---5---7---7---7---7-----|
Db|--7---7---7---7---7---7---7---7-----|--5---5---5---5---7---7---7---7-----|
Ab|--7---7---7---7---7---7---7---7-----|--3---3---3---3---5---5---5---5-----|
Eb|--5---5---5---5---5---5---5---5-----|------------------------------------|
  |                                    |                                    |
  |                                    |                                    |
eb|------------------------------------|------------------------------------|
Bb|--15--15--15--15--17--17--17--17----|--19--19--19--19--20--20--19--19----|
Gb|--x---x---x---x---x---x---x---x-----|--x---x---x---x---x---x---x---x-----|
Db|--12--12--12--12--14--14--14--14----|--16--16--16--16--17--17--16--16----|
Ab|------------------------------------|------------------------------------|
Eb|------------------------------------|------------------------------------|

[Pre-Chorus 3]
   Gtr 1
     E E E E E E E E      E E E E E E E E      E E E E E E E E      E E E E E E E E
eb|--------------------|--------------------|--------------------|--------------------|
Bb|--------------------|--------------------|--------------------|--------------------|
Gb|--5-5-5-5-5-5-5-5---|--------------------|--7-7-7-7-7-7-7-7---|--------------------|
Db|--5-5-5-5-5-5-5-5---|--5-5-5-5-5-5-5-5---|--7-7-7-7-7-7-7-7---|--7-7-7-7-7-7-7-7---|
Ab|--3-3-3-3-3-3-3-3---|--5-5-5-5-5-5-5-5---|--5-5-5-5-5-5-5-5---|--7-7-7-7-7-7-7-7---|
Eb|--------------------|--3-3-3-3-3-3-3-3---|--------------------|--5-5-5-5-5-5-5-5---|
PM|    . .   . .   .   |    . .   . .   .   |    . .   . .   .   |    . .   . .   .   |
  |                    |                    |                    |                    |
  |Gtr 2               |                    |                    |                    |
  |  Q  (H.)           | (W)                | (W)                | (W)                |
eb|--------------------|--------------------|--------------------|--------------------|
Bb|--17\---------------|--------------------|--------------------|--------------------|
Gb|--x-----------------|--------------------|--------------------|--------------------|
Db|--14\---------------|--------------------|--------------------|--------------------|
Ab|--------------------|--------------------|--------------------|--------------------|
Eb|--------------------|--------------------|--------------------|--------------------|

     E E E E E E E E      E E E E E E E E      W                   +H       H
eb|--------------------|--------------------|--------------------|--------------------|
Bb|--------------------|--------------------|--------------------|--------------------|
Gb|--5-5-5-5-5-5-5-5---|--------------------|--7-----------------|---------[3]--------|
Db|--5-5-5-5-5-5-5-5---|--5-5-5-5-5-5-5-5---|--7----[Dip the whammy bar --------------|
Ab|--3-3-3-3-3-3-3-3---|--5-5-5-5-5-5-5-5---|--5--- then bring it back up]------------|
Eb|--------------------|--3-3-3-3-3-3-3-3---|--------------------|--------------------|
PM|    . .   . .   .   |    . .   . .   .   |                    |                    |
  |                    |                    |                    |                    |
  | (W)                | (W)                | (W)                | (H)      H         |
eb|--------------------|--------------------|--------------------|--------------------|
Bb|--------------------|--------------------|--------------------|--------------------|
Gb|--------------------|--------------------|--------------------|--------------------|
Db|--------------------|--------------------|--------------------|--------------------|
Ab|--------------------|--------------------|--------------------|----------[Pick ----|
Eb|--------------------|--------------------|--------------------|---------- slide]---|

[Chorus 3]
   Gtr 1
     Q   Q   Q   Q        E E Q   Q   Q        Q   Q   Q   Q        E E Q   Q   Q
eb|--------------------|--------------------|--------------------|--------------------|
Bb|o-------------------|--------------------|--------------------|--------------------|
Gb|--------------------|--7-7-7-------------|--------------------|--7-7-7-------------|
Db|--2---2---5---5-----|--7-7-7---7---7-----|--2---2---5---5-----|--7-7-7---7---7-----|
Ab|o-2---2---5---5-----|--5-5-5---7---7-----|--2---2---5---5-----|--5-5-5---7---7-----|
Eb|--0---0---3---3-----|----------5---5-----|--0---0---3---3-----|----------5---5-----|
  |                    |                    |                    |                    |
  |Gtr 2               |                    |                    |                    |
  |  Q   E E Q   E E   |  E E E Q   E E E   |  Q   E E E E E E   |  Q   E E E E E E   |
eb|--0---0-0-0---0-0---|--0-0-0-0---0-0-0---|--0---0-0-7-7-7-7---|--5---5-5-5-5-5-5---|
Bb|o-5---5-5-5---5-5---|--5-7-8-7---5-5-5---|--5---5-5-5-5-5-5---|--5---5-5-5-5-5-5---|
Gb|--------------------|--------------------|--------------------|--------------------|
Db|--------------------|--------------------|--------------------|--------------------|
Ab|o-------------------|--------------------|--------------------|--------------------|
Eb|--------------------|--------------------|--------------------|--------------------|


     Q   Q   Q   Q        E E Q   Q   Q        E E E E E E E E      E  E  E  E  E  E  E  E    (x2)
eb|--------------------|--------------------|--------------------|----------------------------|
Bb|--------------------|--------------------|--------------------|---------------------------o|
Gb|--9---9-------------|--7-7-7-------------|--9-9-9-7-7-7-9-9---|--11-11-11-12-12-12-11-11---|
Db|--9---9---5---5-----|--7-7-7---7---7-----|--x-x-x-x-x-x-x-x---|--x--x--x--x--x--x--x--x----|
Ab|--7---7---5---5-----|--5-5-5---7---7-----|--7-7-7-5-5-5-7-7---|--9--9--9--10-10-10-9--9---o|
Eb|----------3---3-----|----------5---5-----|--------------------|----------------------------|
  |                    |                    |                    |                            |
  |  Q   E E Q   E E   |  E E E Q   E E E   |  Q   E E E E E E   |  Q     E  E  E  E  E  E    |
eb|--0---0-0-0---0-0---|--0-0-0-0---0-0-0---|--0---0-0-7-7-7-7---|--5-----5--5--5--5--5--5----|
Bb|--5---5-5-5---5-5---|--5-7-8-7---5-5-5---|--5---5-5-5-5-5-5---|--5-----5--5--5--5--5--5---o|
Gb|--------------------|--------------------|--------------------|----------------------------|
Db|--------------------|--------------------|--------------------|----------------------------|
Ab|--------------------|--------------------|--------------------|---------------------------o|
Eb|--------------------|--------------------|--------------------|----------------------------|

     E E E E E E E E      E  E  E  E  E  E  E  E    (x2)
eb|--------------------|----------------------------|
Bb|o-------------------|---------------------------o|
Gb|--9-9-9-7-7-7-9-9---|--11-11-11-12-12-12-11-11---|
Db|--x-x-x-x-x-x-x-x---|--x--x--x--x--x--x--x--x----|
Ab|o-7-7-7-5-5-5-7-7---|--9--9--9--10-10-10-9--9---o|
Eb|--------------------|----------------------------|
  |                    |                            |
  |  E E E E E E E E   |  E  E  E  E  E  E  E  E    |
eb|--0-0-0-0-7-7-7-7---|--5--5--5--5--0--0--0--0----|
Bb|o-5-5-5-5-5-5-5-5---|--5--5--5--5--8--8--7--7---o|
Gb|--------------------|----------------------------|
Db|--------------------|----------------------------|
Ab|o-------------------|---------------------------o|
Eb|--------------------|----------------------------|

     W                                   +H               S S S S E   E        E
eb|------------------------------------|------------------------------------|------------||
Bb|------------------------------------|------------------------------------|------------||
Gb|------------------------------------|------------------7-7-7-7-7---------|--9---------||
Db|--2---------------------------------|------------------7-7-7-7-7---7-----|--9---------||
Ab|--2---------------------------------|------------------5-5-5-5-5---7-----|--7---------||
Eb|--0---------------------------------|------------------------------5-----|------------||
  |                                    |                                    |            ||
  |  W                                 | +H               S S S S E   E     |  E         ||
eb|--0---------------------------------|------------------------------------|------------||
Bb|--5---------------------------------|------------------------------------|------------||
Gb|------------------------------------|------------------7-7-7-7-7---------|--9---------||
Db|------------------------------------|------------------7-7-7-7-7---7-----|--9---------||
Ab|------------------------------------|------------------5-5-5-5-5---7-----|--7---------||
Eb|------------------------------------|------------------------------5-----|------------||


************************************

|  \   Slide down
|  x   Dead note
|  PM  Palm mute
|  /   Slide up
| [n]  Natural/artificial harmonic
|  S   Sixteenth note
|  E   Eighth note
|  Q   Quarter note
|  H   Half note
|  W   Whole note
|  .   Dotted note
| (N)  Rest
|  +   Add note value
|o o|  Reprise

************************************
Suggest correction
Creating personal tab
Creating personal tab
You can edit any tab online and save it as your Personal.

You can edit, replace or remove any tab part or add personal notes – all changes will be seen only by you.

Personal tabs can be accessed anytime from any device, even offline.
Learn more »
Give kudos to tab author, rate the tab!
1 2 3 4 5
comments
print report bad tab
guest
You may want to rate the tab now too:
select rating
Wanna post a correction for this tab? Suggest correction