Oops, an error
Loading. Please wait.

Wolves tab

version 1
version 1

Whole song

  • This is the first version of the tab. It may not b... Show more

Interactive

1,537 views 48 this week
3 commentsread comments
1 2 3 4 5
x 4
add to favorites
×
Save as Personal and add changes to this tab that will be seen only by you. Learn more ›
×
You can save this tab as Personal to edit and correct it or add notes. All changes will be seen only by you. Learn more »
launch autoscroll
font size
0
reset
how to read this tab
guitar tuner
edit
Autoscroll
slow
fast
+/-
esc
set tempo
stop
About this tab version
This is the first version of the tab. It may not be 100% accurate, but it's a good starting point. Also, Rise Against songs are typically in Eb tuning, but this song is Drop C#. This can be seen from their live performance of Wolves. Was this info helpful? Yes No
Wolves
Rise Against
Wolves (2017)
Drop C# (C# G# C# F# A# D#)

[Intro]

Guitar 1
D#||-----------------|-----------------|-----------------|-----------------|
A#||-3-3-3-3-3-3-3-3-|-3-3-3-3-3-3-3---|-3-3-3-3-3-3-3-3-|-3-3-3-3-3-3-3---|
F#||-3-3-3-3-3-3-3-3-|-3-3-3-3-3-3-3---|-3-3-3-3-3-3-3-3-|-3-3-3-3-3-3-3---|
C#||-----------------|-----------------|-----------------|-----------------|
G#||-----------------|-----------------|-----------------|-----------------|
C#||-----------------|-----------------|-----------------|-----------------|

D#|-----------------|-----------------||
A#|-----------------|-----------------||
F#|-----------------|-----------------||
C#|-5---5-5-5---5---|-3---3-3-3---3---||
G#|-5---5-5-5---5---|-3---3-3-3---3---||
C#|-5---5-5-5---5---|-3---3-3-3---3---|| x2

Guitar 2
D#|-------------------------|-------------------------|
A#|-------------------------|-------------------------|
F#|-12-12-12-12-12-12-12-12-|-10-10-10-10-10-10-10-10-|
C#|-------------------------|-------------------------|
G#|-10-10-10-10-10-10-10-10-|-8--8--8--8--8--8--8--8--|
C#|-------------------------|-------------------------| x2

[Verse 1]

Guitar 1
D#|-----------------|-----------------|-----------------|-----------------|
A#|-3-3-3-3-3-3-3-3-|-3-3-3-3-3-3-3-3-|-6-6-6-6-6-6-6-6-|-6-6-6-6-6-6-6-6-|
F#|-3-3-3-3-3-3-3-3-|-3-3-3-3-3-3-3-3-|-5-5-5-5-5-5-5-5-|-5-5-5-5-5-5-5-5-|
C#|-----------------|-----------------|-3-3-3-3-3-3-3-3-|-3-3-3-3-3-3-3-3-|
G#|-----------------|-----------------|-----------------|-----------------|
C#|-----------------|-----------------|-----------------|-----------------| x2

Guitar 2
D#|-----------------|-----------------|-----------------|-----------------| 
A#|-----------------|-----------------|-----------------|-----------------| 
F#|-10/12\10--------|-----------------|-----------------|-----------------| 
C#|-----------------|-----------------|-----------------|-----------------| 
G#|-8-/10\8---------|-----------------|-----------------|-///////////////-| 
C#|-----------------|-----------------|-----------------|-///////////////-| 
                                                             pickslide

[Pre-Chorus]

Guitar 1
D#|-----------------|-----------------|-----------------|-----------------|
A#|-----------------|-----------------|-----------------|-----------------|
F#|-----------------|-----------------|-----------------|-----------------|
C#|-1-1-1-1-1-1-1-1-|-1-1-1-1-1-1-1-1-|-3-3-3-3-3-3-3-3-|-3-3-3-3-3-3-3-3-|
G#|-1-1-1-1-1-1-1-1-|-1-1-1-1-1-1-1-1-|-3-3-3-3-3-3-3-3-|-3-3-3-3-3-3-3-3-|
C#|-1-1-1-1-1-1-1-1-|-1-1-1-1-1-1-1-1-|-3-3-3-3-3-3-3-3-|-3-3-3-3-3-3-3-3-|
      .   . .   .     . . . . . . . .   .   . .   .       . . . . . . . .

D#|-----------------|-----------------|-----------------|-----------------|
A#|-----------------|-----------------|-----------------|-----------------|
F#|-----------------|-----------------|-----------------|-----------------|
C#|-5-5-5-5-5-5-5-5-|-5-5-5-5-5-5-5-5-|-8-8-8-8-8-8-8-8-|-8---------------|
G#|-5-5-5-5-5-5-5-5-|-5-5-5-5-5-5-5-5-|-8-8-8-8-8-8-8-8-|-8---------------|
C#|-5-5-5-5-5-5-5-5-|-5-5-5-5-5-5-5-5-|-8-8-8-8-8-8-8-8-|-8---------------|
    .   . .   .       . . . . . . . .   

Guitar 2
D#|--------------------------|------------------------|--------------------------|------------------------| 
A#|--------------------------|------------------------|--------------------------|------------------------| 
F#|-12---12---12-14-15-14-12-|---12-12-12-12-12-12-12-|-12---12---12-14-15-14-14-|---14-14-14-14-14-14-14-|
C#|--------------------------|------------------------|--------------------------|------------------------| 
G#|-10---10---10-12-13-12-10-|---10-10-10-10-10-10-10-|-10---10---10-12-13-12-12-|---12-12-12-12-12-12-12-| 
C#|--------------------------|------------------------|--------------------------|------------------------| 

D#|--------------------------|------------------------|-------------------------|-------------------------| 
A#|--------------------------|------------------------|-------------------------|-------------------------| 
F#|-12---12---12-14-15-14-12-|---12-12-12-12-12-12-12-|-17-17-15-15-14-14-14-15-|-14----------------------| 
C#|--------------------------|------------------------|-------------------------|-------------------------| 
G#|-10---10---10-12-13-12-10-|---10-10-10-10-10-10-10-|-15-15-13-13-12-12-12-13-|-12----------------------| 
C#|--------------------------|------------------------|-------------------------|-------------------------| 


[Chorus 1]

Guitar 1
D#|-----------------|-----------------|-----------------|-----------------|
A#|-----------------|-----------------|-----------------|-----------------|
F#|-----------------|-----------------|-3-3-3-3-3-3-3-3-|-3-3-3-3-3-3-3-3-|
C#|-5-5-5-5-5-5-5-5-|-5-5-5-5-5-5-5-5-|-3-3-3-3-3-3-3-3-|-3-3-3-3-3-3-3-3-|
G#|-5-5-5-5-5-5-5-5-|-5-5-5-5-5-5-5-5-|-1-1-1-1-1-1-1-1-|-1-1-1-1-1-1-1-1-|
C#|-5-5-5-5-5-5-5-5-|-5-5-5-5-5-5-5-5-|-----------------|-----------------|

D#|-----------------|-----------------|-----------------|-----------------|
A#|-----------------|-----------------|-----------------|-----------------|
F#|-----------------|-----------------|-5-5-5-5-5-5-5-5-|-5-5-5-5-5-5-5-5-|
C#|-----1-1-1-1-1-1-|-1-1-1-1-1-1-1-1-|-5-5-5-5-5-5-5-5-|-5-5-5-5-5-5-5-5-|
G#|-----1-1-1-1-1-1-|-1-1-1-1-1-1-1-1-|-3-3-3-3-3-3-3-3-|-3-3-3-3-3-3-3-3-|
C#|-----1-1-1-1-1-1-|-1-1-1-1-1-1-1-1-|-----------------|-----------------|

D#|-----------------|-----------------|-----------------|-----------------|
A#|-----------------|-----------------|-----------------|-----------------|
F#|-----------------|-----------------|-3-3-3-3-3-3-3-3-|-3-3-3-3-3-3-3-3-|
C#|-5-5-5-5-5-5-5-5-|-5-5-5-5-5-5-5-5-|-3-3-3-3-3-3-3-3-|-3-3-3-3-3-3-3-3-|
G#|-5-5-5-5-5-5-5-5-|-5-5-5-5-5-5-5-5-|-1-1-1-1-1-1-1-1-|-1-1-1-1-1-1-1-1-|
C#|-5-5-5-5-5-5-5-5-|-5-5-5-5-5-5-5-5-|-----------------|-----------------|

D#|-----------------|-----------------|-----------------|-----------------|
A#|-----------------|-----------------|-----------------|-------1---3-----|
F#|-----------------|-----------------|-5-5-5-5-5-5-5-5-|-3-2-------------|
C#|-----1-1-1-1-1-1-|-1-1-1-1-1-1-1-1-|-5-5-5-5-5-5-5-5-|-----3-----------|
G#|-----1-1-1-1-1-1-|-1-1-1-1-1-1-1-1-|-3-3-3-3-3-3-3-3-|-----------------|
C#|-----1-1-1-1-1-1-|-1-1-1-1-1-1-1-1-|-----------------|-----------------|

Guitar 2
D#|-10-10---10-10-10---10-|
A#|-------8----------8----|
F#|-----------------------|
C#|-----------------------|
G#|-----------------------|
C#|-----------------------| x4

D#|-----------------|-----------------|-----------------|-----------------|
A#|-----------------|-----------------|-----------------|-----------------|
F#|-----3-3-3-3-3-3-|-3-3-3-3-3-5-7-5-|-5-5-5-5-5-5-5-5-|-5-5-5-5-5-5-5-5-|
C#|-----------------|-----------------|-----------------|-----------------|
G#|-----1-1-1-1-1-1-|-1-1-1-1-1-3-5-3-|-3-3-3-3-3-3-3-3-|-3-3-3-3-3-3-3-3-|
C#|-----------------|-----------------|-----------------|-----------------|

D#|-10-10---10-10-10---10-|
A#|-------8----------8----|
F#|-----------------------|
C#|-----------------------|
G#|-----------------------|
C#|-----------------------| x4

D#|-----------------|-----------------|-----------------|-----------------|
A#|-----------------|-----------------|-----------------|-----------------|
F#|-----3-3-3-3-3-3-|-3-3-3-3-3-5-7-5-|-5-5-5-5-5-5-5-5-|-5---------------|
C#|-----------------|-----------------|-----------------|-----------------|
G#|-----1-1-1-1-1-1-|-1-1-1-1-1-3-5-3-|-3-3-3-3-3-3-3-3-|-3---------------|
C#|-----------------|-----------------|-----------------|-----------------|

[Interlude]

Guitar 1
D#|-----------------|---------1---3---|-----------------|-----------------|
A#|-4-------3-------|-----------------|-----------------|-----------------|
F#|-----------------|---3-------------|-----------------|-----------------|
C#|-----------------|-----------------|-5---5-5-5---5---|-3---3-3-3---3---|
G#|-----------------|-----------------|-5---5-5-5---5---|-3---3-3-3---3---|
C#|-----------------|-----------------|-5---5-5-5---5---|-3---3-3-3---3---|

Guitar 2
D#|-----------------|-----------------|-------------------------|-------------------------|
A#|-----------------|-----------------|-------------------------|-------------------------|
F#|-8-----------x-x-|-x---------------|-12-12-12-12-12-12-12-12-|-14-14-14-14-14-14-14-14-|
C#|-------------x-x-|-x---------------|-------------------------|-------------------------|
G#|-6-----------x-x-|-x---------------|-10-10-10-10-10-10-10-10-|-12-12-12-12-12-12-12-12-|
C#|-----------------|-----------------|-------------------------|-------------------------|

[Verse 2]

Guitar 1
D#|-----------------|-----------------|-----------------|-----------------|
A#|-3-3-3-3-3-3-3---|-3-3-3-3-3-3-3---|-3-3-3---3-3-3---|-3-3-3---3-3-3---|
F#|-3-3-3-3-3-3-3---|-3-3-3-3-3-3-3---|-3-3-3---3-3-3---|-3-3-3---3-3-3---|
C#|-----------------|-----------------|-----------------|-----------------|
G#|-----------------|-----------------|-----------------|-----------------|
C#|-----------------|-----------------|-----------------|-----------------|

D#|-----------------|-----------------|
A#|-----------------|-----------------|
F#|-----------------|-----------------|
C#|-5---5-5-5---5---|-3---3-3-3---3---|
G#|-5---5-5-5---5---|-3---3-3-3---3---|
C#|-5---5-5-5---5---|-3---3-3-3---3---|

Guitar 2
D#|-------------------------|-------------------------|
A#|-------------------------|-------------------------|
F#|-12-12-12-12-12-12-12-12-|-10-10-10-10-10-10-10-10-|
C#|-------------------------|-------------------------|
G#|-10-10-10-10-10-10-10-10-|-8--8--8--8--8--8--8--8--|
C#|-------------------------|-------------------------| 

[Pre-Chorus]

Guitar 1
D#|-----------------|-----------------|-----------------|-----------------|
A#|-----------------|-----------------|-----------------|-----------------|
F#|-----------------|-----------------|-----------------|-----------------|
C#|-1-1-1-1-1-1-1-1-|-1-1-1-1-1-1-1-1-|-3-3-3-3-3-3-3-3-|-3-3-3-3-3-3-3-3-|
G#|-1-1-1-1-1-1-1-1-|-1-1-1-1-1-1-1-1-|-3-3-3-3-3-3-3-3-|-3-3-3-3-3-3-3-3-|
C#|-1-1-1-1-1-1-1-1-|-1-1-1-1-1-1-1-1-|-3-3-3-3-3-3-3-3-|-3-3-3-3-3-3-3-3-|
      .   . .   .     . . . . . . . .   .   . .   .       . . . . . . . .

D#|-----------------|-----------------|-----------------|-----------------|
A#|-----------------|-----------------|-----------------|-----------------|
F#|-----------------|-----------------|-----------------|-----------------|
C#|-5-5-5-5-5-5-5-5-|-5-5-5-5-5-5-5-5-|-8-8-8-8-8-8-8-8-|-8-8-8-8-8-------|
G#|-5-5-5-5-5-5-5-5-|-5-5-5-5-5-5-5-5-|-8-8-8-8-8-8-8-8-|-8-8-8-8-8-------|
C#|-5-5-5-5-5-5-5-5-|-5-5-5-5-5-5-5-5-|-8-8-8-8-8-8-8-8-|-8-8-8-8-8-------|
    .   . .   .       . . . . . . . .   

Guitar 2
D#|--------------------------|------------------------|--------------------------|------------------------| 
A#|--------------------------|------------------------|--------------------------|------------------------| 
F#|-12---12---12-14-15-14-12-|---12-12-12-12-12-12-12-|-12---12---12-14-15-14-14-|---14-14-14-14-14-14-14-|
C#|--------------------------|------------------------|--------------------------|------------------------| 
G#|-10---10---10-12-13-12-10-|---10-10-10-10-10-10-10-|-10---10---10-12-13-12-12-|---12-12-12-12-12-12-12-| 
C#|--------------------------|------------------------|--------------------------|------------------------| 

D#|--------------------------|------------------------|-------------------------|-------------------------| 
A#|--------------------------|------------------------|-------------------------|-------------------------| 
F#|-12---12---12-14-15-14-12-|---12-12-12-12-12-12-12-|-17-17-15-15-14-14-14-15-|-14-14-14-14-14----------|
C#|--------------------------|------------------------|-------------------------|-------------------------| 
G#|-10---10---10-12-13-12-10-|---10-10-10-10-10-10-10-|-15-15-13-13-12-12-12-13-|-12-12-12-12-12----------| 
C#|--------------------------|------------------------|-------------------------|-------------------------| 

[Chorus 1]

Guitar 1
D#|-----------------|-----------------|-----------------|-----------------|
A#|-----------------|-----------------|-----------------|-----------------|
F#|-----------------|-----------------|-3-3-3-3-3-3-3-3-|-3-3-3-3-3-3-3-3-|
C#|-5-5-5-5-5-5-5-5-|-5-5-5-5-5-5-5-5-|-3-3-3-3-3-3-3-3-|-3-3-3-3-3-3-3-3-|
G#|-5-5-5-5-5-5-5-5-|-5-5-5-5-5-5-5-5-|-1-1-1-1-1-1-1-1-|-1-1-1-1-1-1-1-1-|
C#|-5-5-5-5-5-5-5-5-|-5-5-5-5-5-5-5-5-|-----------------|-----------------|

D#|-----------------|-----------------|-----------------|-----------------|
A#|-----------------|-----------------|-----------------|-----------------|
F#|-----------------|-----------------|-5-5-5-5-5-5-5-5-|-5-5-5-5-5-5-5-5-|
C#|-----1-1-1-1-1-1-|-1-1-1-1-1-1-1-1-|-5-5-5-5-5-5-5-5-|-5-5-5-5-5-5-5-5-|
G#|-----1-1-1-1-1-1-|-1-1-1-1-1-1-1-1-|-3-3-3-3-3-3-3-3-|-3-3-3-3-3-3-3-3-|
C#|-----1-1-1-1-1-1-|-1-1-1-1-1-1-1-1-|-----------------|-----------------|

D#|-----------------|-----------------|-----------------|-----------------|
A#|-----------------|-----------------|-----------------|-----------------|
F#|-----------------|-----------------|-3-3-3-3-3-3-3-3-|-3-3-3-3-3-3-3-3-|
C#|-5-5-5-5-5-5-5-5-|-5-5-5-5-5-5-5-5-|-3-3-3-3-3-3-3-3-|-3-3-3-3-3-3-3-3-|
G#|-5-5-5-5-5-5-5-5-|-5-5-5-5-5-5-5-5-|-1-1-1-1-1-1-1-1-|-1-1-1-1-1-1-1-1-|
C#|-5-5-5-5-5-5-5-5-|-5-5-5-5-5-5-5-5-|-----------------|-----------------|

D#|-----------------|-----------------|-----------------|-----------------|
A#|-----------------|-----------------|-----------------|-----------------|
F#|-----------------|-----------------|-5-5-5-5-5-5-5-5-|-5-5-5-5-5-5-5-5-|
C#|-----1-1-1-1-1-1-|-1-1-1-1-1-1-1-1-|-5-5-5-5-5-5-5-5-|-5-5-5-5-5-5-5-5-|
G#|-----1-1-1-1-1-1-|-1-1-1-1-1-1-1-1-|-3-3-3-3-3-3-3-3-|-3-3-3-3-3-3-3-3-|
C#|-----1-1-1-1-1-1-|-1-1-1-1-1-1-1-1-|-----------------|-----------------|

Guitar 2
D#|-10-10---10-10-10---10-|
A#|-------8----------8----|
F#|-----------------------|
C#|-----------------------|
G#|-----------------------|
C#|-----------------------| x4

D#|-----------------|-----------------|-----------------|-----------------|
A#|-----------------|-----------------|-----------------|-----------------|
F#|-----3-3-3-3-3-3-|-3-3-3-3-3-5-7-5-|-5-5-5-5-5-5-5-5-|-5-5-5-5-5-5-5-5-|
C#|-----------------|-----------------|-----------------|-----------------|
G#|-----1-1-1-1-1-1-|-1-1-1-1-1-3-5-3-|-3-3-3-3-3-3-3-3-|-3-3-3-3-3-3-3-3-|
C#|-----------------|-----------------|-----------------|-----------------|

D#|-10-10---10-10-10---10-|
A#|-------8----------8----|
F#|-----------------------|
C#|-----------------------|
G#|-----------------------|
C#|-----------------------| x4

D#|-----------------|-----------------|-----------------|-----------------|
A#|-----------------|-----------------|-----------------|-----------------|
F#|-----3-3-3-3-3-3-|-3-3-3-3-3-5-7-5-|-5-5-5-5-5-5-5-5-|-5-5-5-5-5-5-5-5-|
C#|-----------------|-----------------|-----------------|-----------------|
G#|-----1-1-1-1-1-1-|-1-1-1-1-1-3-5-3-|-3-3-3-3-3-3-3-3-|-3-3-3-3-3-3-3-3-|
C#|-----------------|-----------------|-----------------|-----------------|

[Solo]

Guitar 1
D#||-----------------|-----------------|
A#||-----------------|-----------------|
F#||-----------------|-----------------|
C#||-1-----1---1-1-1-|-5-----5---5-5-5-|
G#||-1-----1---1-1-1-|-5-----5---5-5-5-|
C#||-1-----1---1-1-1-|-5-----5---5-5-5-| x3

D#|-----------------|-----------------||
A#|-----------------|-----------------||
F#|-----------------|-----------------||
C#|-3-----3---3-3-3-|---x-x-x---8-7---||
G#|-3-----3---3-3-3-|---x-x-x---8-7---||
C#|-3-----3---3-3-3-|---x-x-x---8-7---|| x2

Guitar 2
D#|------------------|------------------|------------------|------------------|
A#|------------------|------------------|------------------|-15---------------|
F#|-15-------14---12-|-12-------14---15-|-15-------14---12-|----------12---12-|
C#|------------------|------------------|------------------|------------------|
G#|------------------|------------------|------------------|------------------|
C#|------------------|------------------|------------------|------------------|

D#|--------------------------|------------------------|
A#|-16-15-------18-15--------|-16-15---------11-13-15-|
F#|-------17-15-------17-15--|-------17-15------------|
C#|--------------------------|------------------------|
G#|--------------------------|------------------------|
C#|--------------------------|------------------------|

D#|----------------------------|-------------------------|
A#|-13b15-15-15-15-15-15-15-15-|---------------15--------|
F#|----------------------------|-15-14-12-12----------12-|
C#|----------------------------|-------------------------|
G#|----------------------------|-------------------------|
C#|----------------------------|-------------------------|

D#|-------------------|-------------------|-------------------|-------------------|
A#|-18--------15------|-13--------11------|-18--------15------|-13--------15---15-|
F#|------17--------15-|------14--------12-|------17--------15-|-------------------|
C#|-------------------|-------------------|-------------------|-------------------|
G#|-------------------|-------------------|-------------------|-------------------|
C#|-------------------|-------------------|-------------------|-------------------|

D#|-------------------------|-------------------------|
A#|-16-16-16-16-16-16-16-16-|-15-15-15-15-11-13-15-13-|
F#|-------------------------|-------------------------|
C#|-------------------------|-------------------------|
G#|-------------------------|-------------------------|
C#|-------------------------|-------------------------|

D#|----------------------------|-------------------------|
A#|-13b15-15-15-15-15-15-15-15-|---------------15--------|
F#|----------------------------|-15-14-12-12----------12-|
C#|----------------------------|-------------------------|
G#|----------------------------|-------------------------|
C#|----------------------------|-------------------------|

[Bridge] 

Guitar 1
D#|-----------------|
A#|-----------------|
F#|-----------------|
C#|-1---------------|
G#|-1---------------|
C#|-1---------------|

Guitar 2
D#|-----------------|-----------------|
A#|-----8-----------|-----------------|
F#|-----------7-----|-5------7--------|
C#|-5-5---5-5---5-5-|---5-5---5-5-8-8-|
G#|-----------------|-----------------|
C#|-----------------|-----------------| x11

D#|-----------------|-----------------|
A#|-----------------|-----------------|
F#|-5-5-------------|-----------------|
C#|-5-5-------------|-----------------|
G#|-3-3-------------|-///////////////-|
C#|-----------------|-///////////////-|
                         pickslide
        
[Chorus 3]

Guitar 1
D#|-----------------|-----------------|-----------------|-----------------|
A#|-----------------|-----------------|-----------------|-----------------|
F#|-----------------|-----------------|-3---3-3-3---3-3-|-3---3-3-3---3-3-|
C#|-5---5-5-5---5-5-|-5---5-5-5---5-5-|-3---3-3-3---3-3-|-3---3-3-3---3-3-|
G#|-5---5-5-5---5-5-|-5---5-5-5---5-5-|-1---1-1-1---1-1-|-1---1-1-1---1-1-|
C#|-5---5-5-5---5-5-|-5---5-5-5---5-5-|-----------------|-----------------|

D#|-----------------|-----------------|-----------------|-----------------|
A#|-----------------|-----------------|-----------------|-----------------|
F#|-----------------|-----------------|-5---5-5-5---5-5-|-5---5-5-5---5-5-|
C#|-1---1-1-1---1-1-|-1---1-1-1---1-1-|-5---5-5-5---5-5-|-5---5-5-5---5-5-|
G#|-1---1-1-1---1-1-|-1---1-1-1---1-1-|-3---3-3-3---3-3-|-3---3-3-3---3-3-|
C#|-1---1-1-1---1-1-|-1---1-1-1---1-1-|-----------------|-----------------|

D#|-----------------|-----------------|-----------------|-----------------|
A#|-----------------|-----------------|-----------------|-----------------|
F#|-----------------|-----------------|-3---3---3-3-3-3-|-3---3---3-3-3-3-|
C#|-5---5---5-5-5-5-|-5---5---5-5-5-5-|-3---3---3-3-3-3-|-3---3---3-3-3-3-|
G#|-5---5---5-5-5-5-|-5---5---5-5-5-5-|-1---1---1-1-1-1-|-1---1---1-1-1-1-|
C#|-5---5---5-5-5-5-|-5---5---5-5-5-5-|-----------------|-----------------|

D#|-----------------|-----------------|-----------------|-----------------|
A#|-----------------|-----------------|-----------------|-----------------|
F#|-----------------|-----------------|-5-5-5-5-5-5-5-5-|-5-5-5-5-5-5-5-5-|
C#|-1---1---1-1-1-1-|-1---1---1-1-1-1-|-5-5-5-5-5-5-5-5-|-5-5-5-5-5-5-5-5-|
G#|-1---1---1-1-1-1-|-1---1---1-1-1-1-|-3-3-3-3-3-3-3-3-|-3-3-3-3-3-3-3-3-|
C#|-1---1---1-1-1-1-|-1---1---1-1-1-1-|-----------------|-----------------|

Guitar 2
D#||-----------------|-----------------|-----------------|-----------------|
A#||---18-----15-----|-13---15---11-11-|---18-----15-----|-13---15---15-15-|
F#||-----------------|-----------------|-----------------|-----------------|
C#||---15-----12-----|-10---12---8--8--|---15-----12-----|-10---12---12-12-|
G#||-----------------|-----------------|-----------------|-----------------|
C#||-----------------|-----------------|-----------------|-----------------|

D#|-----------------|-----------------|-------------------------|-------------------------||
A#|---18-----15-----|-13---15---11-11-|-13-13-13-13-13-13-13-13-|-11-13-15-13-11-11-11-11-||
F#|-----------------|-----------------|-------------------------|-------------------------||
C#|---15-----12-----|-10---12---8--8--|-10-10-10-10-10-10-10-10-|-8--10-12-10-8--8--8--8--||
G#|-----------------|-----------------|-------------------------|-------------------------||
C#|-----------------|-----------------|-------------------------|-------------------------|| x2

[Outro]

Guitar 1
D#|-----------------|-----------------|-----------------|-----------------|
A#|-----------------|-----------------|-----------------|-----------------|
F#|-----------------|-----------------|-3---3---3---3---|-3---3-3---------|
C#|-5---5---5---5---|-5---5-5---------|-3---3---3---3---|-3---3-3---------|
G#|-5---5---5---5---|-5---5-5---------|-1---1---1---1---|-1---1-1---------|
C#|-5---5---5---5---|-5---5-5---------|-----------------|-----------------|

D#|-----------------|-----------------|-----------------|-----------------|
A#|-----------------|-----------------|-----------------|-----------------|
F#|-----------------|-----------------|-5-5-5-5-5-5-5-5-|-5-5-5-5-5-5-5-5-|
C#|-1---1---1---1---|-1---1-1---------|-5-5-5-5-5-5-5-5-|-5-5-5-5-5-5-5-5-|
G#|-1---1---1---1---|-1---1-1---------|-3-3-3-3-3-3-3-3-|-3-3-3-3-3-3-3-3-|
C#|-1---1---1---1---|-1---1-1---------|-----------------|-----------------|

D#|-----------------|
A#|-----------------|
F#|-----------------|
C#|-5-5---5---5-1---|
G#|-5-5---5---5-1---|
C#|-5-5---5---5-1---|

Guitar 2
D#|-10-10---10-10-10---10-|
A#|-------8----------8----|
F#|-----------------------|
C#|-----------------------|
G#|-----------------------|
C#|-----------------------| x4

D#|-----------------|-----------------|-------------------------|-------------------------|
A#|---18-----15-----|-13---15---11-11-|-13-13-13-13-13-13-13-13-|-11-13-15-13-11-11-11-11-|
F#|-----------------|-----------------|-------------------------|-------------------------|
C#|-----------------|-----------------|-------------------------|-------------------------|
G#|-----------------|-----------------|-------------------------|-------------------------|
C#|-----------------|-----------------|-------------------------|-------------------------|

D#|---------------------|
A#|---------------------|
F#|-12-12---12---12-8---|
C#|---------------------|
G#|-10-10---10---10-6---|
C#|---------------------|

***********************************
| x   Deadnote
| \   Slide Down
| /   Slide Up
| b   Bend
***********************************

            
            
Suggest correction
Creating personal tab
Creating personal tab
You can edit any tab online and save it as your Personal.

You can edit, replace or remove any tab part or add personal notes – all changes will be seen only by you.

Personal tabs can be accessed anytime from any device, even offline.
Learn more »
comments
print report bad tab
3 comments total.
0 reply
DaysofGrace 187 Jun 09, 2017 07:05 AM

I spent so long trying to figure out what the hell he was doing in that live performance and why I couldn't get it to sound right. It never occurred to me that it was in Drop C#. Good call.

Also, really good tab. I think it's damn near perfect.

0 reply
yannicktross1 100 Jun 22, 2017 11:02 AM

Hey pretty good tab! Good job!

But I have two little suggestions:
The first line of the solo part which starts with:

D#|-----------------|-----------------|
A#|-----------------|-----------------|
F#|-----------------|-----------------| and so on..
C#|-15------14---12-|-12------14---15-|
G#|-----------------|-----------------|
C#|-----------------|-----------------|

must be played one string higher, like this:

D#|-----------------|-----------------|
A#|-----------------|-----------------|
F#|-15------14---12-|-12------14---15-| and so on..
C#|-----------------|-----------------|
G#|-----------------|-----------------|
C#|-----------------|-----------------|

Second, near the end of the solo part, where you play

D#|-------------------|-------------------|
A#|-18--------15------|-13--------15---15-|
F#|------17--------15-|-------------------|
C#|-------------------|-------------------|
G#|-------------------|-------------------|
C#|-------------------|-------------------|

i would rather play

D#|-------------------|-------------------|
A#|-18--------15------|-13--------15------|
F#|------17--------15-|----------------12-|and so on..
C#|-------------------|-------------------|
G#|-------------------|-------------------|
C#|-------------------|-------------------|

I hope I could help!
Except for that, your tab is perfect! Thanks for that!

guest
You may want to rate the tab now too:
select rating
Wanna post a correction for this tab? Suggest correction