Oops, an error
Loading. Please wait.

Worth Dying For Bass Tab

version 1
version 1

Whole song

Interactive

4,934 views 1 this week
no commentswrite comment
1 2 3 4 5
x 7
add to favorites
launch autoscroll
font size
0
reset
guitar tuner
Autoscroll
slow
fast
+/-
esc
set tempo
stop
Help us to improve Ultimate-Guitar.com Take our survey!
×
Author
Difficulty
rise against
worth dying for
the sufferer and the witness

intro:

|---|---|----|---|
|---|---|----|---| x2
|-4-|---|----|-2-|
|---|-5-|-0~-|---| 

verse:

|----------------------------------------------| 
|----------------------------------------------| 
|-4444444444------------7777777777-22222222222-|
|------------5555555555------------------------|

|----------------------------------------------| 
|----------------------------------------------| 
|-4444444444------------7777-99-77-22222222222-| 
|------------5555555555------------------------|

pre chorus:

|----------------------------------------------|
|----------------------------------------------|
|-----------------------------------2222222222-|
|-5555555555-2222222222-5555555555-------------|

|-------------------------------------------------------|
|-------------------------------------------------------|
|-----------------------------------2-2-2-2-2-2-2-2-2-2-|
|-5555555555-2222222222-5555555555----------------------|

chorus:

|--------------------------------------------------------------|
|--------------------------------------------------------------| x2
|-44-4-44-4-44-4--------------------------------22-2-22-2-22-2-|
|-----------------55-5-55-5-55-5-00-0-00-0-00-0----------------|


|----------------------------------------------| 
|----------------------------------------------| x2
|-4444444444-----------------------22222222222-|
|------------5555555555-0000000000-------------|

post chorus:

|----------------------|---|
|----------------------|---|
|-4-444-4-444-4-444----|-4-|
|----------------------|---|

verse:

|----------------------------------------------| 
|----------------------------------------------| 
|-4444444444------------7777777777-22222222222-|
|------------5555555555------------------------|

|----------------------------------------------------------| 
|----------------------------------------------------------| 
|-4444444444------------7777-999-7-12-12-12-12-12-12-12-12-| 
|------------5555555555------------------------------------|

|----------------------------------------------| 
|----------------------------------------------| 
|-4444444444------------7777777777-22222222222-|
|------------5555555555------------------------|

|----------------------------------------------| 
|----------------------------------------------| 
|-4444444444------------7777-99-77-22222222222-| 
|------------5555555555------------------------|

pre chorus:

|----------------------------------------------|
|----------------------------------------------|
|-----------------------------------2222222222-|
|-5555555555-2222222222-5555555555-------------|

|-------------------------------------------------------|
|-------------------------------------------------------|
|-----------------------------------2-2-2-2-2-2-2-2-2-2-|
|-5555555555-2222222222-5555555555----------------------|

chorus:

|--------------------------------------------------------------|
|--------------------------------------------------------------| x2
|-44-4-44-4-44-4--------------------------------22-2-22-2-22-2-|
|-----------------55-5-55-5-55-5-00-0-00-0-00-0----------------|


|----------------------------------------------| 
|----------------------------------------------| x2
|-4444444444-----------------------22222222222-|
|------------5555555555-0000000000-------------|

|---|
|---|
|-4-|
|---|

bridge:

|---------------------|---------------------|
|---7---5---9---7---5-|---------------------| x4
|-5---3---7---5---3---|---7---5---9---7---5-|
|---------------------|-5---3---7---5---3---|

|---------|----------------|
|---------|----------------|
|---7---5-|-2--2-2-2-2-2-2-|
|-5---3---|----------------|

pre chorus:

|----------------------------------------------|
|----------------------------------------------|
|-----------------------------------2222222222-|
|-5555555555-2222222222-5555555555-------------|

|-----------------------|---|-----------------------------------------|
|-----------------------|---|-----------------------------------------|
|-----------------------|---|-2-2-2-2-2-2-2-2-2-2/12-12-12\9/14-14-14-|
|-5555555555-2222222222-|-5-|-----------------------------------------|

chorus:

|--------------------------------------------------------------|
|--------------------------------------------------------------| x2
|-44-4-44-4-44-4--------------------------------22-2-22-2-22-2-|
|-----------------55-5-55-5-55-5-00-0-00-0-00-0----------------|


|----------------------------------------------| 
|----------------------------------------------| x2
|-4444444444-----------------------22222222222-|
|------------5555555555-0000000000-------------|

outro:

|----------------------------------------------|
|----------------------------------------------| x2
|-4444444444-----------------------22222222222-|
|------------5555555555-0000000000-------------|

|----|
|----|
|-4~-|
|----|







Suggest correction
comments
print report bad tab
guest
You may want to rate the tab now too:
select rating
Wanna post a correction for this tab? Suggest correction