Oops, an error
Loading. Please wait.

Worth Dying For ukulele

version 1
version 1

Whole song

Interactive

124 views 3 this week
no commentswrite comment
1 2 3 4 5
2 more votes to show rating
add to favorites
×
Save as Personal and add changes to this tab that will be seen only by you. Learn more ›
×
You can save this tab as Personal to edit and correct it or add notes. All changes will be seen only by you. Learn more »
launch autoscroll
font size
0
reset
transpose
0
reset
display chords
guitar tuner
backing track
0:00
0:00
edit
Autoscroll
slow
fast
+/-
esc
set tempo
stop
Strumming
There is no strumming pattern for this song yet. and get +5 IQ
Rise Against - Worth Dying For
Off their new album The Sufferer & The Witness

this is my first tab so dont hate the new guy

intro                     x2
|--------------------------|-------------------|
|--------------------------|-------------------|
|---6------------4---------|-------------------|
|---6---7---2~---4---------|--//////////////---|
|---4---7---2~---2---------|--//////////////---|
|-------5---0~-------------|--//////////////---|
                               ^ Pickslide

verse                                        x2
|----------------------------------------------|
|----------------------------------------------|
|----------------------------------------------|
|-6666666666------------9999999999-44444444444-|
|-4444444444-7777777777-7777777777-22222222222-|
|------------5555555555------------------------|

pre chorus                                   x2
|----------------------------------------------|
|----------------------------------------------|
|----------------------------------------------|
|----------------------------------4444444444--|
|-7777777777-4444444444-7777777777-2222222222--|
|-5555555555-2222222222-5555555555-------------|
                                     ^^^^^2nd time take slight pauses before struming 
note and palm mute

chorus                                   x2
|-----------------------------------------|
|-----------------------------------------|
|-----------------------------------------|
|-666666666---------------------444444444-|
|-444444444-777777777-222222222-222222222-|
|-----------555555555-000000000-----------|

yeah thats all i have so far but ile keep working on it
thnx ppl

            
            
Suggest correction
Creating personal tab
Creating personal tab
You can edit any tab online and save it as your Personal.

You can edit, replace or remove any tab part or add personal notes – all changes will be seen only by you.

Personal tabs can be accessed anytime from any device, even offline.
Learn more »
Give kudos to tab author, rate the tab!
1 2 3 4 5
comments
print report bad tab
guest
Wanna post a correction for this tab? Suggest correction