Oops, an error
Loading. Please wait.

Half The Truth Is A Whole Lie Tab

54 views 1 this week
no commentswrite comment
1 2 3 4 5
3 more votes to show rating
add to favorites
launch autoscroll
font size
0
reset
how to read this tab
guitar tuner
Autoscroll
slow
fast
+/-
esc
set tempo
stop
Help us to improve Ultimate-Guitar.com Take our survey!
×
Author
Difficulty
Tuning
novice
C G C F A D
Intro:
|-------------------------------------------------------------|
|-------------------------------------------------------------|
|-------------------------------------------------------------|
|---------------8---------------8---------------8-------------|
|-------5---------------5---------------5---------------5-1-4-|
|-0-0-0---0-0-0---0-0-0---0-0-0---8-8-8---8-8-8---5-5-5-------|x2




|---------------------------------------------|
|---------------------------------------------|
|-7-7-7-9-9-9-10-10-10-9-10-12-12-12-14-14-14-|
|---------------------------------------------|
|-5-5-5-7-7-7-8--8--8--7-8--10-10-10-12-12-12-|
|---------------------------------------------|x2


first verse:
|-------------------------------------------------------------------
|-------------------------------------------------------------------
|-------------------------5-----------------------------------------
|---------7-------8---3-------7-------------5-----------------------
|-5---8-------5---------------------3---7-------3-------------------
|---0---0---0---0---0---0---0-----0---0---0---0---7-5-3-2-----------



|--------------------------------------------|
|--------------------------------------------|
|--------------------------------------------|
|-------3-------2-------7-------5----5-3---3-|
|-1-1-1---1-1-1---3-3-3---3-3-3----------3-3-|
|--------------------------------------------|x2


chorus:
|----------------------------------------------------------------|
|----------------------------------------------------------------|
|----------------------------------------------------------------|
|-------------7-7-7-7-5-5-5-5-----------------------------10-----|
|-0-0-0-0-0---5-5-5-5-3-3-3-3-8-8-8-8-10-10-10-10-12-10-8----8-7-|
|-0-0-0-0-0-------------------8-8-8-8-10-10-10-10----------------|

|----------------------------------------------------------------|
|----------------------------------------------------------------|
|----------------------------------------------------------------|
|-------------7-7-7-7-5-5-5-5------------------------------------|
|-0-0-0-0-0---5-5-5-5-3-3-3-3-8-8-8-8-10-10-10-10-12-10-8-10-8-7-|
|-0-0-0-0-0-------------------8-8-8-8-10-10-10-10----------------|


breakdown:
|-----------------------------------------------------------------------|
|-----------------------------------------------------------------------|
|----------------------------------------------------------------9-10---|
|-3p2------5p3-----7p5---------------------3p2----5p3----0-----7------7-|
|-----3--------5-------7--0-0-0-0--0-0-0-------3------5--0---8----------|
|-------------------------0-0-0-0--0-0-0-----------------0-8------------|x2


|----------------------------------------------------------|
|----------------------------------------------------------|
|----------------------------------------------------------|
|-3p2------5p3-----7p5---------------------3p2----5p3----0-|
|-----3--------5-------7--0-0-0-0--0-0-0-------3------5--0-|
|-------------------------0-0-0-0--0-0-0-----------------0-|


Tremolo/Blast Beat:

|---------------------------------|
|---------------------------------|
|---------------------------------|
|101010---------888------777------|
|---------777888---777555---555333|
|------888------------------------|x4


solo:

|--------------------------------------------------------------
|--------------------------------------------------------------
|--------------------------------------------------------------
|-7-7-7--7-7-7--7-7-7--7-7-7-7----5-5-5--5-5-5--5-5-5--5-5-5-5-
|-5-5-5--5-5-5--5-5-5--5-5-5-5----3-3-3--3-3-3--3-3-3--3-3-3-3-
|--------------------------------------------------------------


|-----------------------------------------------------------------|
|-----------------------------------------------------------------|
|-----------------------------------------------------------------|
|-----------------------------------------------------------------|
|-8-8-8--8-8-8--8-8-8--8-8-8------10-10-10--10-10-10--10-10-10-10-|
|-8-8-8--8-8-8--8-8-8--8-8-8------10-10-10--10-10-10--10-10-10-10-|x3



chorus:
|----------------------------------------------------------------|
|----------------------------------------------------------------|
|----------------------------------------------------------------|
|-------------7-7-7-7-5-5-5-5-----------------------------10-----|
|-0-0-0-0-0---5-5-5-5-3-3-3-3-8-8-8-8-10-10-10-10-12-10-8----8-7-|
|-0-0-0-0-0-------------------8-8-8-8-10-10-10-10----------------|

|----------------------------------------------------------------|
|----------------------------------------------------------------|
|----------------------------------------------------------------|
|-------------7-7-7-7-5-5-5-5------------------------------------|
|-0-0-0-0-0---5-5-5-5-3-3-3-3-8-8-8-8-10-10-10-10-12-10-8-10-8-7-|
|-0-0-0-0-0-------------------8-8-8-8-10-10-10-10----------------|




Outro:

						
|-----------------------
|-----------------------
|-----------------------
|-0-0-0-0-0---0-0-0-0-0-
|-0-0-0-0-0---0-0-0-0-0-
|-1-1-1-1-1---1-1-1-1-1-


		http://www.myspace.com/rfta777			
Suggest correction
Give kudos to tab author, rate the tab!
1 2 3 4 5
comments
print report bad tab
guest
You may want to rate the tab now too:
select rating
Wanna post a correction for this tab? Suggest correction