Oops, an error
Loading. Please wait.

When Dead Youll Take Nothing Tab

29 views 1 this week
no commentswrite comment
1 2 3 4 5
please rate
add to favorites
launch autoscroll
font size
0
reset
how to read this tab
guitar tuner
Autoscroll
slow
fast
+/-
esc
set tempo
stop
Help us to improve Ultimate-Guitar.com Take our survey!
×
Author
Difficulty
Tuning
novice
C G C F A D
Intro:
Tremolo Picking 2X
|---------------------------------------------------------------------|
|---------------------------------------------------------------------|
|-----------------9-9-9-9-10-10-10-10-5-5-5-5-------------------------|
|-7-7-7-7-3-3-3-3-----------------------------8-8-8-8-7-7-7-7-8-8-8-8-|
|---------------------------------------------------------------------|
|---------------------------------------------------------------------|


|-------------------------------------------------------------------------|
|-------------------------------------------------------------------------|
|-----------------9-9-9-9-10-10-10-10-5-5-5-5-----------------------------|
|-7-7-7-7-3-3-3-3-----------------------------12-12-12-12-10-10-10-10---0-|
|-----------------------------------------------------------------------0-|
|-----------------------------------------------------------------------0-|

Verse 1: 3x

|---------------------------------------------------------------------------|
|---------------------------------------------------------------------------|
|---------------------------------------------------------------------------|
|-----7---3-------------------------7---3-------------------------8---7-----|
|-------------5---7---8---7---8-------------5---7---8---7---8-------------8-|
|-0-0---0---0---0---0---0---0---0-0---0---0---0---0---0---0---5-5---5---5---|

|-----------------------|
|-----------------------|
|------------9-10-5-5h7-|
|----------8------------|
|-8\10-8-8-8------------|
|----------8------------|

Pre-Breakdown

|--------------------------------------------------------|
|--------------------------------------------------------|
|--------------------------------------------------------|
|-0---------------------------0--------------------------|
|-0---------------------------0--------------------------|
|-0---------------------------0--------------------------|


Breakdown: 2x


|--------------------------------------------------------------------------|
|--------------------------------------------------------------------------|
|--------------------------------------------------------------------------|
|--------------------------------------------------------------------------|
|---0---0-0-0-0-0--0--0-0-0--0---0-0-0---0---0-0-0-0-0--0--0-0-0-0-0-0-0-0-|
|---1---1-1-1-1-1--1--1-1-1--1---1-1-1---5---5-5-5-5-5--5--7-7-7-7-8-8-8-8-|

|---------------------------------------------------------------------|
|---------------------------------------------------------------------|
|---------------------------------------------------------------------|
|---------------------------------------------------------------------|
|---0---0-0-0-0-0--0--0-0-0--0---0-0-0---0---0-0-0-0-0--0---0-0-0-0-0-|
|---1---1-1-1-1-1--1--1-1-1--1---1-1-1---5---5-5-5-5-5--5---3-3-3-3-3-|

verse 2: 4x

|-------------------------------------|
|-------------------------------------|
|-7-7-7-7-6-6-6-6-10-10-10-10-3-3-3-3-|
|-------------------------------------|
|-5-5-5-5-4-4-4-4-8--8--8--8--1-1-1-1-|
|-------------------------------------|


verse 3:Tremolo picking 4x
|-------------------------------------------------------------------------|
|-------------------------------------------------------------------------|
|-------------------------------------------------------------------------|
|---------------------------------------------------7-7-7-5-5-5-----------|
|-------8-8-8-7-7-7-5-5-5-8-8-8-7-7-5-5-5-5-5-------------------7-7-7-----|
|-0-0-0---------------------------------------8-8-8-----------------------|


|-------------------------|
|-------------------------|
|-------------------------|
|-------7-7-7-5-5-5-------|
|-------------------7-7-7-|
|-8-8-8-------------------|


chorus: 2x

|-----------------------------------------------------|
|-----------------------------------------------------|
|-7-7-7-7-6-6-6-6-10-10-10-10-14-14-14-14-12-12-12-12-|
|-----------------------------------------------------|
|-5-5-5-5-4-4-4-4-8--8--8--8--12-12-12-12-10-10-10-10-|
|-----------------------------------------------------|


Outro:
                           2x
|-------|-----------------------------------------------------------------|
|-------|-----------------------------------------------------------------|
|-------|--7-7-7-7-6-6-6-6------------------10-10-10-10-14-14-14-12-12-12-|
|-0-0-0-|-----------------------------------------------------------------|
|-0-0-0-|--5-5-5-5-4-4-4-4--0-0---0-0-0--0--8--8--8--8--12-12-12-10-10-10-|
|-0-0-0-|-------------------0-0---0-0-0--0--------------------------------|
Suggest correction
Give kudos to tab author, rate the tab!
1 2 3 4 5
comments
print report bad tab
guest
You may want to rate the tab now too:
select rating
Wanna post a correction for this tab? Suggest correction