Oops, an error
Loading. Please wait.

Feathergun In The Garden Of The Sun tab

by Rishloo
100 views 15 this week
no commentswrite comment
1 2 3 4 5
1 last vote to show rating
add to favorites
×
Save as Personal and add changes to this tab that will be seen only by you. Learn more ›
×
You can save this tab as Personal to edit and correct it or add notes. All changes will be seen only by you. Learn more »
launch autoscroll
font size
0
reset
how to read this tab
guitar tuner
edit
Autoscroll
slow
fast
+/-
esc
set tempo
stop
About this tab version
This is very close to the recorded version. Some live performances have slight differences. Listen to the song better understand the timing of the difficult parts. Was this info helpful? Yes No
[Intro]

    (Backing chords - Use delay & tremolo)- In live gigs one guitar plays both chords and lead

Time sign.=5/4     

D#|--1-|--3-|--3-|-(5)-|--1-|--3-|--3-|-(5)--3--|------|
A#|--3-|--2-|--1-|--3--|--3-|--2-|--1-|--3---2--|------|
F#|----|----|----|--2--|----|----|----|--2------|------|
C#|--0-|----|----|--0--|--0-|----|----|--0------|------|
G#|----|--0-|--3-|-----|----|--0-|--3-|---------|------|
C#|----|----|----|-----|----|----|----|---------|------|

   Lead - Use delay and volume swells
D#|------------------------|------------|--------------|--------|
A#|------------------------|----10-10/17|-15-17---17\10|--------|
F#|--10-12-12b(1/4)-12-10--|--12--------|--------------|-----12-|
C#|----------------------12|------------|--------------|--------|
G#|------------------------|------------|--------------|--------|
C#|------------------------|------------|--------------|--------|

D#|------------------------|------------|-----------------|-------------|
A#|------------------------|----10-10/17|---10-/17---17\10|--10\8---6\5-|
F#|--10-12--12b(1/4)-12----|--12--------|-12--------------|-------------|
C#|---------------------12-|------------|-----------------|-------------|
G#|------------------------|------------|-----------------|-------------|
C#|------------------------|------------|-----------------|-------------|

[Verse]
 Time sign.= 4/4

D#|--------------------------------|
A#|--------------------------------|
F#|--------------------------------|
C#|-12p0-0-19h15-0--12p0-0-19p15-0-| x20
G#|--------------------------------|
C#|--------------------------------|

D#|-------------|---------------------------|
A#|-------------|---------------------------|
F#|-------------|---------------------------|
C#|-------------|---------------------------|
G#|--5-----5-5--|---5-5-5---5-5-3h5-5-5-3h5-|
C#|--0---x-0-0--|-x-0-0-0-------------------|
  P.M....................|

D#|---------------------------|--------------------------|
A#|---------------------------|--------------------------|
F#|---------------------------|--------------------------|
C#|-------3------------3------|---3----3-----------------|  Χ2
G#|-5--3h5--5-3-5--3h5----5-3-|2---3-2--3-2--1--3-2-1----|
C#|---------------------------|-----------------------5--|
  P.M..................................................|


D#|-----------------------------------------------|---------------------------------------------|
A#|-----------------------------------------------|---------------------------------------------|
F#|-----------------------------------------------|---------------------------------------------|
C#|-----------------3---------------------3-------|-------------3----3--------------------------|
G#|-5-5-5-5-5-5--3h5--5-3-5-5-5-5-5-5--3h5----5-3-|2-2-2-2-2-2---3-2--3-2--1-1-1-1-1-1-3-2-1----|
C#|-----------------------------------------------|------------------------------------------5--|
  P.M.........................................................................................|

D#|-----------------------------------------------|---------------------------------------------|
A#|-----------------------------------------------|---------------------------------------------|
F#|-----------------------------------------------|---------------------------------------------|
C#|-----------------3---------------------3-------|-------------3----3--------------------------|
G#|-5-5-5-5-5-5--3h5--5-3-5-5-5-5-5-5--3h5----5-3-|2-2-2-2-2-2---3-2--3-2--1-1-1-1-1-1-3-2-1----|
C#|-----------------------------------------------|------------------------------------------3--|
  P.M............................................|


[Chorus]
                                                                                     *fast tremolo picking 
                                                                                       chords or muted chords
D#|------------------------------------------------|-------------------------------------------------|
A#|-------------------8-/10--8---------------------|-------------------------------------------------|
F#|-----------------6---------10-9-10-/12-10-9-7-6-|----7-9-9brb-7-9brb-7-7--------------------------|
C#|----5--7--8---/7--------------------------------|--8----------------------8-7-5-7-x-5-x-3-x-2-x---|
G#|-5----------------------------------------------|-------------------------8-7-5-7-x-5-x-3-x-2-x---|
C#|-5----------------------------------------------|-------------------------8-7-5-7-x-5-x-3-x-2-x---|
                                                                                     N.  N.  N.  N.
[Verse]

D#|--------------------------------|
A#|--------------------------------|
F#|--------------------------------|
C#|-12p0-0-19h15-0--12p0-0-19p15-0-| x12
G#|--------------------------------|
C#|--------------------------------|

D#|-----------------------------------------------|---------------------------------------------|
A#|-----------------------------------------------|---------------------------------------------|
F#|-----------------------------------------------|---------------------------------------------|  X2
C#|-----------------3---------------------3-------|-------------3----3--------------------------|
G#|-5-5-5-5-5-5--3h5--5-3-5-5-5-5-5-5--3h5----5-3-|2-2-2-2-2-2---3-2--3-2--1-1-1-1-1-1-3-2-1----|
C#|-----------------------------------------------|------------------------------------------5--|
  P.M.........................................................................................|


D#|-----------------------------|----------------------------------------|
A#|-----------------------------|----------------------------------------|
F#|-----------------------------|----------------------------------------|
C#|-------3------------3--------|---------3----3-------------------------|
G#|-5--3h5--5-3-5--3h5----5-3---|2--2-2-2---3-2--3-2--1-1-1-1-1-3-2-1----|
C#|-0-----------0---------------|-------------------------------------5--|
 
D#|-----------------------------|----------------------------------------|
A#|-----------------------------|----------------------------------------|
F#|-----------------------------|----------------------------------------|
C#|-------3------------3--------|---------3----3-------------------------|
G#|-5--3h5--5-3-5--3h5----5-3---|2--2-2-2---3-2--3-2--1-1-1-1-1-3-2-1----|
C#|-0-----------0---------------|-------------------------------------3--|
 

[Chorus]                                                                             
                                                                                     *fast tremolo picking 
                                                                                       chords or muted chords
D#|------------------------------------------------|-------------------------------------------------|
A#|-------------------8-/10--8---------------------|-------------------------------------------------|
F#|-----------------6---------10-9-10-/12-10-9-7-6-|----7-9-9brb-7-9brb-7-7--------------------------|
C#|----5--7--8---/7--------------------------------|--8----------------------8-7-5-7-x-5-x-3-x-2-x---|
G#|-5----------------------------------------------|-------------------------8-7-5-7-x-5-x-3-x-2-x---|
C#|-5----------------------------------------------|-------------------------8-7-5-7-x-5-x-3-x-2-x---|
                                                                                     N.  N.  N.  N.

[Bridge]

D#|------------------------|
A#|------------------------|
F#|------------------------| x15 , (at 16th bar stop at 1st note and play solo)
C#|-12p0-0-10-12p0-12p0----|
G#|------------------------|
C#|------------------------|

[Solo]  -Use wah wah during the solo

D#|---------|---------------------------------------------|
A#|----15brb|------------------15brb----------------------|
F#|--14-----|-14--10--9--12--14------14--10--2-3-10-9-14v-|
C#|---------|-----12--10-14--------------12---------------|
G#|---------|---------------------------------------------|
C#|---------|---------------------------------------------|
                                             N..........            

                                                           *slow bend (1/2) and feedback
D#|----------------------------------------------------18-17-----|
A#|-------------------------------------------16-14-15-----------|
F#|-14--10-------/15-14v-----------------15-14--------------------|
C#|-----12--7-8-------------------15-14--------------------------|
G#|--------------------------12-13-------------------------------|
C#|--------------------------------------------------------------|
                             N................................



[Bridge] **this part is explained at the end of the tab

D#|---------|    |----------|    |--------------------------|
A#|---------|    |----------|    |--------------------------|
F#|---------|    |----------|    |--------------------------|
C#|-19---17-| x4 |--7-\-/---| x2 |-/19\(7)-/19\(7)-/19\(7)--| x2
G#|-17---15-|    |--5-\-/---|    |-/17\(5)-/17\(5)-/17\(5)--|
C#|-0-------|    |--0-\-/---|    |-/0-\(0)-/0-\(0)-/0-\(0)--|

                                                                                           gradually open wah
                                                                                      & slightly bend(1/4)
D#|----------------------------|----------------------------|----------------------------|------|------|
A#|----------------------------|----------------------------|----------------------------|------|------|
F#|-------------------------*--|-------------------------*--|-------------------------*--|------|------|
C#|-------------------------*X2|-------------------------*X2|-------------------------*X2|------|------|
G#|-------------------------*--|-------------------------*--|-------------------------*--|------|------|
C#|-3p2p0-5p3p0-3p2p0-5p3p0----|-5p3p0-5p3p0-5p3p0-5p3p0----|-8p7p0-8p7p0-8p7p0-8p7p0----|--10--|--10--|
                                                                                           Ν...........


D#|--------------|
A#|--------------|
F#|--------------|
C#|--------------|
G#|-5-5-5-5-5-5--|
C#|-0-0-0-0-0-0--|

[Verse]
D#|-----------------------------|----------------------------------------|
A#|-----------------------------|----------------------------------------|
F#|-----------------------------|----------------------------------------|
C#|-------3------------3--------|---------3----3-------------------------|
G#|-5--3h5--5-3-5--3h5----5-3---|2--2-2-2---3-2--3-2--1-1-1-1-1-3-2-1----|
C#|-0-----------0---------------|-------------------------------------5--|
 
D#|-----------------------------|----------------------------------------|
A#|-----------------------------|----------------------------------------|
F#|-----------------------------|----------------------------------------|
C#|-------3------------3--------|---------3----3-------------------------|
G#|-5--3h5--5-3-5--3h5----5-3---|2--2-2-2---3-2--3-2--1-1-1-1-1-3-2-1----|
C#|-0-----------0---------------|-------------------------------------3--|
 

[Chorus]                                                                             
                                                                                     *fast tremolo picking 
                                                                                       chords or muted chords
D#|------------------------------------------------|-------------------------------------------------|
A#|-------------------8-/10--8---------------------|-------------------------------------------------|
F#|-----------------6---------10-9-10-/12-10-9-7-6-|----7-9-9brb-7-9brb-7-7--------------------------|
C#|----5--7--8---/7--------------------------------|--8----------------------8-7-5-7-x-5-x-3-x-2-x---|
G#|-5----------------------------------------------|-------------------------8-7-5-7-x-5-x-3-x-2-x---|
C#|-5----------------------------------------------|-------------------------8-7-5-7-x-5-x-3-x-2-x---|
                                                                                     N.  N.  N.  N.


End on:
D#|---|
A#|---|
F#|---|
C#|-2-|
G#|-2-|
C#|-2-|


** Bridge Explained 

This part is a bit tricky.       Then play this 2 times      Then play slides between these            
Play the part below 4 times:     with some slide-downs.      2 chords (octave) continously
(1st chords is 3 quarters,
 last is 1 quarter)                      
D#|---------|                   |----|                     |-------|                                          
A#|---------|                   |----|                     |-------|
F#|---------|                   |----|                     |-------|
C#|-19---17-|                   |-7--|                     |-7--19-|
G#|-17---15-|                   |-5--|                     |-5--17-|
C#|-0-------|                   |-0--|                     |-0--0--|


************************************

| x   Dead note
| (n) Ghost note
| h   Hammer-on
| p   Pull-off
| brb Bend, then Release
| /   Slide up
| \   Slide down
| ~   Vibrato
| PM  Palm mute
| N   Tremolo

************************************

            
            
Suggest correction
Creating personal tab
Creating personal tab
You can edit any tab online and save it as your Personal.

You can edit, replace or remove any tab part or add personal notes – all changes will be seen only by you.

Personal tabs can be accessed anytime from any device, even offline.
Learn more »
Give kudos to tab author, rate the tab!
1 2 3 4 5
comments
print report bad tab
guest
You may want to rate the tab now too:
select rating
Wanna post a correction for this tab? Suggest correction