Oops, an error
Loading. Please wait.

Were All Alone Tab

178 views 6 this week
no commentswrite comment
1 2 3 4 5
3 more votes to show rating
add to favorites
launch autoscroll
font size
0
reset
how to read this tab
guitar tuner
Autoscroll
slow
fast
+/-
esc
set tempo
stop
Author
Difficulty
novice
About this tab version
This is the solo at the outro of the song very melodic and nice to play. Was this info helpful? Yes No
[Outro Solo]

"owe it to the wind, my love"

e|--------------------------------------------------------------14h15-----14h15-17-17b19-17-14h15p14---|
B|-------------------------------------------------10-12/13/15--------13-----------------------------17|
G|-----------------------------------------9-11-12-----------------------------------------------------|
D|----------------------------7--9-10-12---------------------------------------------------------------|
A|-----------------------------------------------------------------------------------------------------|
E|-----------------------------------------------------------------------------------------------------|

e|-14-14---15p14------------------------------------------------------------------|
B|---------------17-15-17\10---------------------12h13b15-13b15br13----13b15br-12-|
G|---------------------------12-11-9-11/12-14b16--------------------12------------|
D|--------------------------------------------------------------------------------|
A|--------------------------------------------------------------------------------|
E|--------------------------------------------------------------------------------|


e|-----------------------------------------------------------------------------------|
B|-------------------------------------------------------------------7-----9b10-8----|
G|-12h14p12-14b15br14-12-12h14p12--9p7---------------------------7-9---7-------------|
D|-------------------------------------10-9-7-------------7-9-10---------------------|
A|--------------------------------------------10-9-7-9-10----------------------------|
E|-----------------------------------------------------------------------------------|


************************************

| x   Dead note
| g   Grace note
| (n) Ghost note
| h   Hammer-on
| p   Pull-off
| r   Release
| >   Accented note
| t   Tapping
| b   Bend
| br  Bend release
| pb  Pre-bend
| pbr Pre-bend release
| /   Slide up
| \   Slide down
| ~   Vibrato
| s   Slap
| P   Pop
| PM  Palm mute
| TR  Trill
| N   Tremolo

************************************
Suggest correction
Give kudos to tab author, rate the tab!
1 2 3 4 5
comments
print report bad tab
guest
You may want to rate the tab now too:
select rating
Wanna post a correction for this tab? Suggest correction