Oops, an error
Loading. Please wait.

Modern Baleine Tab

671 views 3 this week
no commentswrite comment
1 2 3 4 5
please rate
add to favorites
launch autoscroll
font size
0
reset
how to read this tab
guitar tuner
Autoscroll
slow
fast
+/-
esc
set tempo
stop
Help us to improve Ultimate-Guitar.com Take our survey!
×
Difficulty
novice
-------------------------------------------------------------------------------
     Modern Baleine - Les Rita Mitsouko
-------------------------------------------------------------------------------
Tabbed by : Rita Baleine        
Email : dont@emailme.com
Written by : Les Rita Mitsouko
Album : Système D (1993)

Was looking for tabs for this song but couldn't find any.
Fortunately it was easy enough to figure out myself.
Can't say it's 100% accurate but pretty close.
Nice song to put some variations here and there.
Have fun!

s - slide
h - hammer-on
r - release

e B G D A E Standard Tuning

Intro
e|-------------------------------------|
B|-------------------------------------|
G|-------------------------------------|
D|--------2--------2-----4-------------|
A|-----2-----2--3--------5-(Let Ring)--|
E|--0----------------------------------|x4

Main Riff (Play till solo comes in)
e|---------------------------|------------------------------|
B|---------------------------|------------------------------|
G|---------------------0-----|------------------------------|
E|--------2---------2--------|------4--5--------------------|
A|-----2-----2---3--------3--|-3s5--------5--5s7--5---------|
E|--0------------------------|-----------------------5--3---|
Une baleine sur un mur ------               Et qui se donne la peine

1st Solo-------------------------------------------------

e|--------------------------------------------------|
B|--------------------------------------------------|
G|--------------------------------------------------|
D|---5-5-5-5-5---5s3r----5-4-5----------------------|
A|--------------------------------7-7-7-7---5--7s5r-|
E|--------------------------------------------------|

e|--------------------------------------------------|
B|--------------------------------------------------|
G|--------------------------------------------------|
D|--------------------------------------------------|
A|-----7--5--------------------------5---6--7-9-----|
E|--7--------7--3---5---5--7---7-7s8--------------7-|

e|--------------------------------------------------|
B|--------------------------------------------------|
G|--------------------------------------------------|
D|--5-5-5-5-5--5s3r--5--4-5-4-5---------------------|
A|-------------------------------7-7-7-7--5--7s5r---|
E|--------------------------------------------------|

e|--------------------------------------------------|
B|--------------------------------------------------|
G|--------------------------------------------------|
D|--------------------------------------------------|
A|-----7--5--------------------------5---6--7-9s5r--|
E|--7--------7--3---5---5--7---7-7s8----------------|

End of 1st Solo---------------------------------------

e|---------------------------|
B|---------------------------|
G|---------------------------|
D|--------2--------2-----4---|
A|-----2-----2--3--------5---|
E|--0------------------------|x2

e|---------------------------|------------------------------|
B|---------------------------|------------------------------|
G|---------------------0-----|------------------------------|
D|--------2---------2--------|------4--5--------------------|
A|-----2-----2---3--------3--|-3s5--------5--5s7--5---------|
E|--0------------------------|-----------------------5--3---|
Hier elle est allée -----               Que les Dieux lui ont données.

2nd Solo----------------------------------------------

e|--------------------------------------------------|
B|--------------------------------------------------|
G|--------------------------------------------------|
D|---5-5-5-5-5---5s3r----5-4-5----------------------|
A|--------------------------------7-7-7-7---5--7s5r-|
E|--------------------------------------------------|

e|--------------------------------------------------|
B|--------------------------------------------------|
G|--------------------------------------------------|
D|--------------------------------------------------|
A|-----7--5--------------------------5---6--7-9-----|
E|--7--------7--3---5---5--7---7-7s8--------------7-|

e|--------------------------------------------------|
B|--------------------------------------------------|
G|--------------------------------------------------|
D|--7-7-7-7-7---------4--5--------------------------|
A|-------------7---7---------7-7-7-7---5--7s5r------|
E|--------------------------------------------------|

e|--------------------------------------------------|
B|--------------------------------------------------|
G|--------------------------------------------------|
D|--------------------------------------------------|
A|-----7--5-------------------------5----6----------|
E|--7-------7--3--5----5----7---7s8---------7--8--7-|

e|--------------------------------------------------|
B|--------------------------------------------------|
G|--------------------------------------------------|
D|--7-7-7-7-7---7s3r---7-8-7-5----------------------|
A|------------------------------7-7-7-7--5-7--------|
E|--------------------------------------------------|

e|--------------------------------------------------|
B|--------------------------------------------------|
G|--------------------------------------------------|
D|--------------------------------------------------|
A|----7--5---------*0--0--0h2--2--2h3-2---3--2------|
E|--7-------7--3---*-------------------3-------3-2--|

Few notes at the ending are mixed with some other instruments, 
the bar after * isn't 100% accurate.

End of 2nd Solo-----------------------------------------------

e|---------------------------|
B|---------------------------|
G|---------------------------|
D|--------2--------2-----4---|
A|-----2-----2--3--------5---|
E|--0------------------------|x2

Outro
e|---------------------------|------------------------------|
B|---------------------------|------------------------------|
G|---------------------0-----|------------------------------|
D|--------2---------2--------|------4--5--------------------|
A|-----2-----2---3--------3--|-3s5--------5--5s7--5---------|
E|--0------------------------|-----------------------5--3---| Fade Out

The End

=================================================================
Or you can play this at the end instead of the main riff
e|----------------------------------------------------------|
B|----------------------------------------------------------|
G|-----------------------------------------------2----------|
D|----5--4-5-4---2-----5--4-5-4--2-----5--4-5-4-------------|
A|----------------------------------------------------------|
E|----------------------------------------------------------|
Suggest correction
What's this?
You can suggest a correction to this tab. Community and Mods will review your correction and vote to approve or reject it.
comments
We did not receive enough feedback on this tab! Please rate:
print report bad tab
1 2 3 4 5
guest
You may want to rate the tab now too:
select rating
Please do not post tabs as comments. Select "correction" instead!