Oops, an error
Loading. Please wait.

I Will Never Let You Down tab

version 5
version 5

Whole song

100 views 3 this week
no commentswrite comment
1 2 3 4 5
3 more votes to show rating
add to favorites
×
Save as Personal and add changes to this tab that will be seen only by you. Learn more ›
×
You can save this tab as Personal to edit and correct it or add notes. All changes will be seen only by you. Learn more »
launch autoscroll
font size
0
reset
how to read this tab
guitar tuner
edit
Autoscroll
slow
fast
+/-
esc
set tempo
stop
Author
Difficulty
-------------------------------------------------------------------------------
                          I will never let you down - Rita Ora
-------------------------------------------------------------------------------
Tabbed by: SHurley88
E-mail:

Tuning: Standard

Add some distortion or play acoustically. The verse plays along with the lyrics
but in the actual song its just the intro riff. Really simple  

Intro
e|---------------------------------------------------------------------------|
B|------9-----9h10p9----9----------------------------------------------------|
G|---9-----9------------------------8--------6---9----6----------------------|
D|------------------------------9-------9------------------------------------|
A|---------------------------------------------------------------------------|
E|---------------------------------------------------------------------------|

verse
e|---------------------------------------------------------------------------|
B|---------------------------------9--9--9--12--12--10-10--------------------|
G|--9--9--9--9--8--8--8--9--9-----------------------------11--9--9-----------|
D|---------------------------------------------------------------------------|
A|---------------------------------------------------------------------------|
E|---------------------------------------------------------------------------|

e|---------------------------------------------------------------------------|
B|---------------------------------9--9--9--12--12--10--10-------------------|
G|--9--9--9--10--10--8--8--8--9----------------------------11--9--9----------|
D|---------------------------------------------------------------------------|
A|---------------------------------------------------------------------------|
E|---------------------------------------------------------------------------|

end of verse x3

'cause i'v been sick and.......'
e|---------------------------------------------------------------------------|
B|-----9-----9-----9-9---9-------------------9-------------------------------|
G|--9-----9-----9------9---9-----11--11--11-----9----------------------------|
D|---------------------------------------------------------------------------|
A|---------------------------------------------------------------------------|
E|---------------------------------------------------------------------------|

chorus
e|---------------------------------------------------------------------------|
B|--------------------9-9-10-10-12-12-10-10----------------------------------|
G|--6-6-8-8-9-9-11-11-------------------------11--9--8-----------------------|
D|---------------------------------------------------------------------------|
A|---------------------------------------------------------------------------|
E|---------------------------------------------------------------------------|

e|---------------------------------------------------------------------------|
B|------------9--------------------------------------------------------------|
G|--11-11-11-----11-9-8------------------------------------------------------|
D|---------------------------------------------------------------------------|
A|---------------------------------------------------------------------------|
E|---------------------------------------------------------------------------|

interlude
e|---------------------------------------------------------------------------|
B|---------------------------------------------------------------------------|
G|-9x8---8x2---6x2-----------------------------------------------------------|
D|---------------------------------------------------------------------------|
A|---------------------------------------------------------------------------|
E|---------------------------------------------------------------------------|



************************************

| /   slide up
| \   slide down
| h   hammer-on
| p   pull-off
| ~   vibrato
| +   harmonic
| x   Mute note
| b   Bend
| pb  Pre-bend
| br  Bend release
| pbr Pre-bend release
| brb Bend release bend

************************************
Suggest correction
Creating personal tab
Creating personal tab
You can edit any tab online and save it as your Personal.

You can edit, replace or remove any tab part or add personal notes – all changes will be seen only by you.

Personal tabs can be accessed anytime from any device, even offline.
Learn more »
Give kudos to tab author, rate the tab!
1 2 3 4 5
comments
print report bad tab
guest
You may want to rate the tab now too:
select rating
Wanna post a correction for this tab? Suggest correction