Oops, an error
Loading. Please wait.

Come On Lets Go Tab

version 1
version 1

Whole song

27,720 views 75 this week
no commentswrite comment
1 2 3 4 5
x 4
add to favorites
launch autoscroll
font size
0
reset
how to read this tab
guitar tuner
×
Best way to learn
"Come On Lets Go"
Autoscroll
slow
fast
+/-
esc
set tempo
stop
Tuning: Standard

[Intro]
A,D,E
e|-------------2-2-----------|-5-7-88888--7--5-----------|
B|-2-2-----2---3-3-----------|-5-7-88888--7--5---5-5-----|
G|-2-2-----2---2-2---1-1-----|-------------------5-5-----|
D|-2-2-----2---0-0---2-2--x3-|---------------------------|
A|-0-0--0--0---------2-2-----|---------------------------|
E|---------------------------|---------------------------|

[Verse 1] 
9Pretty much follow the same A,D,E progression. Very easy
to follow where the changes are)

[Verse 2] 
"I love you so.....and I'll never let you go
e|-2-------------|--2-----------|
B|-3---2-------2-|--3---2-------|
G|-2---2---1---2-|--2---2---1---|
D|-0---2---2---2-|--0---2---2---|
A|-----0---2---0-|------0---2---|
E|---------------|--------------|

[Solo]
e|-----8--|-------8--10--10(b)-|-10(b)10(b)-10-8--8-------------------------|
B|-10-----|-10-10--------------|--------------------10--12(b1/2)-12-10------|
G|--------|--------------------|---------------------------------------11---|
D|--------|--------------------|--------------------------------------------|
A|--------|--------------------|--------------------------------------------|
E|--------|--------------------|--------------------------------------------|

e|----------------------------------------------------------------------------------|
B|--------10--12(b1/2)-12-10--------------------------------------------------------|
G|-9--12---------------------12--9--------------------------------------------------|
D|----------------------------------12--10-----10--12-12(b)-12(b)--12--10-----------|
A|------------------------------------------12-----------------------------12--10---|
E|----------------------------------------------------------------------------------|

e|-------------------------------------------------------|--------------------|
B|-------------------------------------------------------|--------------10~---|
G|-------------------------------------------------------|-------9--11--------|
D|----10-----10--12--12(b)-12--10--12--10----------------|-10/11--------------|
A|-12-----12-------------------------------12-12~~---12\-|--------------------|
E|-------------------------------------------------------|--------------------|

e|--------------10------------------------|-------8-10-10(b)-10(b)10(b)-10(b)-10(b)-10-8---------|
B|-------10--12-----12(b)--12--10---------|-10-10-----------------------------------------10-8---|
G|-10/11---------------------------12--9--|-----------------------------------------------------9|
D|----------------------------------------|------------------------------------------------------|
A|----------------------------------------|------------------------------------------------------|
E|----------------------------------------|------------------------------------------------------|

[Verse 2] 
"I love you so.....and I'll never let you go
e|-2-------------|--2-----------|
B|-3---2-------2-|--3---2-------|
G|-2---2---1---2-|--2---2---1---|
D|-0---2---2---2-|--0---2---2---|
A|-----0---2---0-|------0---2---|
E|---------------|--------------|

[Outro]
A,D,E
e|-------------2-2-----------|-5-7-88888--7--5-----------|
B|-2-2-----2---3-3-----------|-5-7-88888--7--5---5-5-----|
G|-2-2-----2---2-2---1-1-----|-------------------5-5-----|
D|-2-2-----2---0-0---2-2--x3-|---------------------------|
A|-0-0--0--0---------2-2-----|---------------------------|
E|---------------------------|---------------------------|



************************************

| x  Dead note
| /  Slide up
| ~  Vibrato
| \  Slide down
| (b 
| (b) 
| )  

************************************
Suggest correction
comments
print report bad tab
guest
You may want to rate the tab now too:
select rating
Wanna post a correction for this tab? Suggest correction