Oops, an error
Loading. Please wait.

We Belong Together Tab

version 2
version 2

Whole song

132,128 views 186 this week
no commentswrite comment
1 2 3 4 5
x 20
add to favorites
launch autoscroll
font size
0
reset
how to read this tab
guitar tuner
Autoscroll
slow
fast
+/-
esc
set tempo
stop
Help us to improve Ultimate-Guitar.com Take our survey!
×
Author
Main guitar: Electric. Rythm guitar: Acoustic.


[Intro]

(clean elecric)                               [Verse]

              F           Dm       Gm        C      F          Dm         Gm
                                             You're mine
                                                 (2)mine
e|--------------------------------------------------|------------------------|
B|-6---6-6------------------------------------------|------------------------|
G|-5h7-7-5-2-0(2)---0-2----------0--0-0h2p0---------|------0-2----------0--0-|
D|-------------3--3-----0--0-2-3----------------0-2-|-3--3-----0--0-2-3------|
A|-----------------------------------------3--3-----|------------------------|
E|--------------------------------------------------|------------------------|

           C     F                Dm        Gm          C        F
  and we belong together                        Yes we belong together
 You're lips belong to me                       Yes they belong to only me
e|---------------------------------------------------------------------------|
B|---------------------------------------------------------------------------|
G|-0h2p0--------------------0-2-----------0--0-0h2p0---------------------0-2-|
D|------------0-2-3-------3-----0---0-2-3-------------------0-2-3------3-----|
A|-------3--3-----------------------------------------3---3------------------|
E|---------------------------------------------------------------------------|

     Dm        Gm        C     F              Dm         Gm       C
                For    eternity                                     You're-
   to coda*     For    eternity*(to bridge)                (go to 2nd verse)
e|---------------------------------------------------------------------------|
B|---------------------------------------------------------------------------|
G|----------0-0-0h2p0-------------------0-2----------0---0--0h2p0------------|
D|-0--0-2-3*----------------0-2-3*---3------0--0-2-3--------------------0-2--|
A|---------------------3--3---------------------------------------3--3-------|
E|---------------------------------------------------------------------------|


[Bridge]

 Dm                         F7
                                  You're ---
e|---------------------------1-1-1-1-----------------------------------------|
B|---------------------------1-1-1-1-----------------------------------------|
G|---0-2-3---3-2-0---------2-2-2-2-2-----------------------------------------|
D|-3----------------3--33----1-1-1-1-----------------------------------------|
A|---------------------------------------------------------------------------|
E|---------------------------------------------------------------------------|
 Bb             Bbm                 F        (with fill 1)         Bb
 my..... my..my baby           and  you'll... always... be..    I  swear by

         Bbm                     G7                      C
... everything  I own...  You'll always...   always  be  mine


[Fill 1]

e|-----------------------------------------------|        e|------------------|
B|-\6-66-----------------------------------------|        B|------------------|
G|-\5-55-7-6-5-----------------------------------|        G|\5-5-5--555-333---|
D|-------------7-6-5--3-0------------------------|        D|\5----------------|
A|-----------------------------------------------|        A|\3----------------|
E|-----------------------------------------------|        E|------------------|

                  Slower
You're-                  For.... eternity          etern..
(to 1st verse)   *coda
                Gm                  C    F          Bb
e|---------|-|----3------------------0----1----------(1)---------------------|
B|---------|-|----3------------------1----1-----------3------3---------------|
G|-2-2-0---|-|----3------------------0----2-----2-----3----3---3-------------|
D|---------|-|----5------------------2----3----3--3---3--3-------3-----------|
A|---------|-|----5------------------3----3---3----3--1----------------------|
E|---------|-|----3------------------0----1----------------------------------|


  eternity
     Fmaj7
e|------0-------------------------------------------------------------------|
B|------1-------------------------------------------------------------------|
G|------2-------------------------------------------------------------------|
D|------3-------------------------------------------------------------------|
A|------3-------------------------------------------------------------------|
E|--------------------------------------------------------------------------|


Bb    Bbm   Dm   F7  Gm   G7
1      1     1   1   3    1
3      2     3   1   3    0
3      3     2   2   3    0
3      3     0   1   5    0
1      1     0   0   5    2
0      0     0   0   3    3
Suggest correction
comments
print report bad tab
guest
You may want to rate the tab now too:
select rating
Wanna post a correction for this tab? Suggest correction