Oops, an error
Loading. Please wait.

We Belong Together Tab

version 4
version 4

Whole song

13,311 views 75 this week
1 commentread comment
1 2 3 4 5
accurate
x 4
add to favorites
launch autoscroll
font size
0
reset
how to read this tab
guitar tuner
Autoscroll
slow
fast
+/-
esc
set tempo
stop
Help us to improve Ultimate-Guitar.com Take our survey!
×
Difficulty
intermediate
Rithchie valens - We belong together

Intro:

e--------------------------------------------------------------------|
B—1h3--3--1----------------------------------------------------------|
G--------------2----------0-----------------------0---0h2—2--0-------|
D------------------3---3-----3---0---0---2--3------------------------|
A--------------------------------------------------- --------------3-|
E--------------------------------------------------------------------|



  Your   mine                                      and we belong
e--------------------------------------------------------------------|
B--------------------------------------------------------------------|
G-----------------------0-------------------------0---0h2-2--0-------|
D------0---2----3----3------3----0---0---2--3------------------------|
A---3--------------------------------------------------------------3-|
E--------------------------------------------------------------------|


      Together                                        Yes we belong
e--------------------------------------------------------------------|
B--------------------------------------------------------------------|
G-----------------------0-------------------------0---0h2-2--0-------|
D------0---2----3----3------3----0---0---2--3------------------------|
A---3--------------------------------------------------------------3-|
E--------------------------------------------------------------------|


              Together                                   for eter-
e--------------------------------------------------------------------|
B--------------------------------------------------------------------|
G-----------------------0-------------------------0---0h2-2--0-------|
D------0---2----3----3------3----0---0---2--3------------------------|
A---3--------------------------------------------------------------3-|
E--------------------------------------------------------------------|

    nity
e--------------------------------------------------------------------|
B--------------------------------------------------------------------|
G-----------------------0-------------------------0---0h2-2--0-------|
D------0---2----3----3------3----0---0---2--3------------------------|
A---3--------------------------------------------------------------3-|
E--------------------------------------------------------------------|



Your    mine                                        Your lips
e--------------------------------------------------------------------|
B--------------------------------------------------------------------|
G-----------------------0-------------------------0---0h2-2--0-------|
D------0---2----3----3------3----0---0---2--3------------------------|
A---3--------------------------------------------------------------3-|
E--------------------------------------------------------------------|






     belong to me                                        Yes   they
e--------------------------------------------------------------------|
B--------------------------------------------------------------------|
G-----------------------0-------------------------0---0h2-2--0-------|
D------0---2----3----3------3----0---0---2--3------------------------|
A---3--------------------------------------------------------------3-|
E--------------------------------------------------------------------|

        belong                                 To  only  me  For
e--------------------------------------------------------------------|
B--------------------------------------------------------------------|
G-----------------------0-------------------------0---0h2-2--0-------|
D------0---2----3----3------3----0---0---2--3------------------------|
A---3--------------------------------------------------------------3-|
E--------------------------------------------------------------------|

   eternity.
e--------------------------------------------------------------------|
B--------------------------------------------------------------------|
G-----------------------0-1-1h3—--3--3--2--0------2---2--0-----------|
D------0---2----3----3------------------------3-----1----------------|
A---3----------------------------------------------------------------|
E--------------------------------------------------------------------|


    Your my,     my baby                       and you'll
e--------------------------------------------------------------------|
B-------------0-0--4--4------------4-0-0-3-3--------------4—0--------|
G------------------------2—3h4--2-------------4-3h43h4--2------------|
D--------1-----------------------------------------------------------|
A---3-0--------------------------------------------------------------|
E-0------------------------------------------------------------------|



      Alw,   alw,   always be.
e-0--0--------0---------------------------------|
B-0-----0-------------5--3----------------------|
G-1--------1-----3/4--------4--3--2--—--0-------|
D-2--------------------------------2----2-------|
A-2---------------------------------------------|
E-----------------------------------------------|


    I swear by        everything     I own
e-------------------------------------------------------------------|
B---0-0--4--4------------4-0-0-3-3--------------4—0-----------------|
G--------------2—3h4--2-------------4-3h43h4--2---------------------|
D-------------------------------------------------------------------|
A-------------------------------------------------------------------|
E-------------------------------------------------------------------|

    You'll        always,         always be mine
e--------------------------------------------------------------------|
B--------------------------------------------------------------------|
G---------------—4/5-5-5-3-3-3-2-2-2-0-------------------------------|
D--------------------------------------------------------------------|
A-----1-1-4-4-1------------------------------------------------------|
E-2-2----------------------------------------------------------------|





  Your   mine                  and we belong
e--------------------------------------------------------------------|
B--------------------------------------------------------------------|
G-------0-------------------0--0h2—2--0------------------------------|
D--3--3----3--0—0—2--3-----------------------------------------------|
A-----------------------------------------3--------------------------|
E--------------------------------------------------------------------|



      Together                                        Yes we belong
e--------------------------------------------------------------------|
B--------------------------------------------------------------------|
G-----------------------0-------------------------0---0---2--0-------|
D------0---2----3----3------3----0---0---2--3------------------------|
A---3--------------------------------------------------------------3-|
E--------------------------------------------------------------------|


              Together                   for eter-
e--------------------------------------------------0-----------------|
B--------------------------------------------------1-----------------|
G-----------------------0--------------------------0-----------------|
D------0---2----3----3------3----0---0---2--3------2-----------------|
A---3----------------------------------------------3-----------------|
E--------------------------------------------------------------------|

    Nity        eter…   eternity
e-----1------1-------1------1------0---------|
B-----1------3------3--3----3------0---------|
G-----2------3-----3--------3------1---------|
D-----3------3--------------3------2---------|
A-----3------1--------------1------2---2-----|
E-----1------1--------------1-------------0--|



This tab has been raised for Jam

For comentaries here's my email jam_mermelada@hotmail.com

Esta tab ha sido subido por Jam

para comentarios aqui esta my correo jam_mermelada@hotmail.com

Gracias por su atencion
Suggest correction
comments
print report bad tab
1 comment total.
0 reply
sleekorpheus 100 wrote on March 2 2014, 01:41 am

Nice one i like how you added the lyrics!

guest
You may want to rate the tab now too:
select rating
Wanna post a correction for this tab? Suggest correction