Oops, an error
Loading. Please wait.

Here Tab

77 views 1 this week
no commentswrite comment
1 2 3 4 5
please rate
add to favorites
launch autoscroll
font size
0
reset
how to read this tab
guitar tuner
Autoscroll
slow
fast
+/-
esc
set tempo
stop
Help us to improve Ultimate-Guitar.com Take our survey!
×
-------------------------------------------------------------------------------
Song: Here
Band: Rituals of the Oak
Album: Come Taste the Doom
Tabbed by: TrollFaceJesus
E-mail: trollfacejesus@gmail.com

You can find Ritual of the Oak's music at these sites:

http://ritualsoftheoak.blogspot.com/
http://www.last.fm/music/Rituals+of+the+Oak
http://ritualsoftheoak.bigcartel.com/


Hey everyone, this is my tab for this song, and I think it sounds pretty decent. 
There were some little parts here and there that I wasn't 100% sure about, but I 
think this sounds pretty close to how they play it in the song. Hopefully you 
guys find this tab to be helpful, and if you have any comments, questions, or 
corrections to point out, please feel free to leave me a message here, or to 
send me an email! :D


Tuning: D


Riff 1 (Guitar 1)
|-------------------------------------|
|-------------------------------------|
|--5----4------------5----4-----------| x2
|------------5-----------------5---7--|
|-------------------------------------|
|-------------------------------------|

Riff 1 (Bass)
|--5----4------------5----4-----------|
|------------5-----------------5---7--| x2
|-------------------------------------|
|-------------------------------------|

[Note: If you want to play this with a 
second guitar, just play Guitar 1's 
part an octave lower.]


Riff 2 (Guitar 1)
|--------------------------------------|
|--------------------------------------|
|--9----7------------9----7------------|
|------------9-----------------9---10--| x2
|--------------------------------------|
|--------------------------------------|

Riff 2 (Bass)
|--9----7------------9----7------------|
|------------9-----------------9---10--| x2
|--------------------------------------|
|--------------------------------------|

[Note: If you want to play this with a 
second guitar, just play Guitar 1's 
part an octave lower, like before.]


Riff 3
|-----|
|-----|
|-----| x1
|--2--|
|--2--|
|--0--|


Riff 4a (Guitar 1)
|-------------------------------------|
|-------------------------------------|
|-------------------------------------| x 1
|--2-----2-----2-----3------5---5--5--|
|--2-------2-----------3------5-------|
|--0--0------0----1------1------------|

Riff 4a (Guitar 2)
|-------------------------------------|
|-------------------------------------|
|-------------------------------------| x 1
|--2--------------3---------5------5--|
|--2--------------3---------5------5--|
|--0--------------1---------3------3--|


Riff 4b (Guitar 1)
|------------------------------------|
|------------------------------------|
|------------------------------------| x1
|--2-----2-----2-----7------5-----3--|
|--2-------2-----------5------3------|
|--0--0------0----5------5------3----|

Riff 4b (Guitar 2)
|------------------------------------|
|------------------------------------|
|------------------------------------| x1
|--2--------------7---------5--------|
|--2--------------7---------5--------|
|--0--------------5---------3--------|


Riff 4a x 1


Riff 4c (Guitar 1)
|-----------------------------------------|
|-----------------------------------------|
|-----------------------------------------| x1
|--2-----2-----2-----7------10----10--10--|
|--2-------2-----------5----------8---8---|
|--0--0------0----5------5-----8----------|

Riff 4c (Guitar 2)
|-----------------------------------------|
|-----------------------------------------|
|-----------------------------------------| x1
|--2--------------7---------10------------|
|--2--------------7---------10------------|
|--0--------------5---------8-------------|


Riff 4a x 1

Riff 4b x 1

Riff 4a x 1

Riff 4c x 1


Riff 5
|------------------------------------|
|------------------------------------|
|---------9--------------------------| x4
|--2---2--9-------0------------------|
|--2---2--7--------------2--------3--|
|--0---0-(0)----2---2--3---3--3h5----|


Riff 6a
|---------------------------------|
|---------------------------------|
|------9-7-9---2-4-5--5-5------7--| x1
|--2---9-7-9---2-4-5--5-5--5-4-7--|
|--2---7-5-7---0-2-3--3-3--5-4-5--|
|--0-----------------------3-2----|

Riff 6b
|--------------------------------|
|--------------------------------|
|------9-7-9---2-4-5--5-------7--| x1
|--2---9-7-9---2-4-5--5---5---7--|
|--2---7-5-7---0-2-3--3---5---5--|
|--0----------------------3------|


Riff 6a x 1


Riff 6c
|-------------------------------|
|-------------------------------|
|------9-7-9---2-4-5--5---------| x1
|--2---9-7-9---2-4-5--5---5--4--|
|--2---7-5-7---0-2-3--3---5--4--|
|--0----------------------3--2--|


Riff 6a x 1

Riff 6b x 1

Riff 6a x 1

Riff 6c x 1

Riff 6a x 1

Riff 6b x 1

Riff 6a x 1

Riff 6c x 1

Riff 5 x 4

Riff 6a x 1

Riff 6b x 1

Riff 6a x 1

Riff 6c x 1

Riff 6a x1

Riff 6b x 1

Riff 6a x 1

Riff 6c x 1


Riff 7 (Guitar 1)
|-----------------------------------|
|-----------------------------------|
|------------2-----4-----2----------| x1
|--3---5-----------------------5----|
|----3-----3-----3-----3-----3---3--|
|--------1-----1-----1-----1--------|

Riff 7 (Guitar 2)
|-----------------------------------|
|-----------------------------------|
|-----------------------------------| x1
|--3--------------------------------|
|--3--------------------------------|
|--1--------------------------------|


Riff 8
|---------------------------------------------------------|
|---------------------------------------------------------|
|------7/9-7-9--------10-9--------7/9-7-9--------10-9-----| x1
|--2---7/9-7-9--9-----10-9----2---7/9-7-9--9-----10-9-----|
|--2---5/7-5-7--7-----8--7----2---5/7-5-7--7-----8--7-----|
|--0------------0--0--------0-0------------0--0--------0--|
                   .        .                 .        .

Riff 7 x 1

Riff 8 x 1

Riff 7 x 1

Riff 8 x 1

Riff 7 x 1

Riff 8 x 1

Riff 7 x 1

Riff 8 x 1

Riff 7 x 1

Riff 8 x 1


Riff 9a (Guitar 1)
|-----------------------------|
|-----------------------------|
|--6---------9----7-----8-----| x1
|--6---8-----9----7--8--8--7--|
|--8-----8-6-7----5--8--6--7--|
|--------------------6-----5--|

Riff 9a (Guitar 2)
|-----------------------------|
|-----------------------------|
|--8---------9----7-----8-----| x1
|--8---------9----7--8--8--7--|
|--6---------7----5--8--6--7--|
|--------------------6-----5--|


Riff 9b (Guitar 1)
|-------------------------------|
|-------------------------------|
|--8---------9----7--9--10--13--| x1
|--8---8-----9----7--9--10--13--|
|--6-----8-6-7----5--7--8---11--|
|-------------------------------|

Riff 9 (Guitar 2)
|-------------------------------|
|-------------------------------|
|--8---------9----7--9--10--13--| x1
|--8---------9----7--9--10--13--|
|--6---------7----5--7--8---11--|
|-------------------------------|


Riff 9a x 1

Riff 9b x 1


Riff 9c (Guitar 1)
|-------------------------------|
|-------------------------------|
|--8---------9----8-------------| x2
|--8---8-----9----8---8------7--|
|--6-----8-6-7----6-----8-6--7--|
|----------------------------5--|

Riff 9c (Guitar 2)
|-------------------------------|
|-------------------------------|
|--8---------9----8-------------| x2
|--8---------9----8----------7--|
|--6---------7----6----------7--|
|----------------------------5--|


Riff 9a x 1

Riff 9b x 1

Riff 9c x 2

Riff 9a x 1

Riff 9b x 1


Riff 10a (Guitar 1)
|---------------------------------------|
|---------------------------------------|
|------------6-6-4----------------------| x1
|--6---6/7-6-6-4-4---6-7-9--7h9p7-6-----|
|--4---4/5-4-4---2-------------------7--|
|---------------------------------------|

Riff 10a (Guitar 2)
|---------------------------------------|
|---------------------------------------|
|------------6-6-4----------------------| x1
|--6---6/7-6-6-4-4----------------------|
|--4---4/5-4-4---2----------------------|
|---------------------------------------|


Riff 10b
|------------------------------|
|------------------------------|
|------------6-6-4----2--2-----| x1
|--6---6/7-6-6-4-4----2--2--4--|
|--4---4/5-4-4---2----0--0--2--|
|------------------------------|


Riff 10a x 1

Riff 10b x 1


Riff 11 (Guitar 1)
|-------------------------|
|-------------------------|
|--6----------------------| x8
|--6-------------------4--|
|--4----------------2--4--|
|------0h2h4p2-0-2-----2--|

Riff 11 (Guitar 2)
|-------------------------|
|-------------------------|
|--6----------------------| x8
|--6-------------------4--|
|--4-------------------4--|
|----------------------2--|


And that's about it!


************************************

| /   slide up
| \   slide down
| h   hammer-on
| p   pull-off
| v   vibrato
| +   harmonic
| ·   Mute note
| b   Bend
| pb  Pre-bend
| br  Bend release
| pbr Pre-bend release
| brb Bend release bend

************************************
Suggest correction
Give kudos to tab author, rate the tab!
1 2 3 4 5
comments
print report bad tab
guest
You may want to rate the tab now too:
select rating
Please do not post tabs as comments. Select "correction" instead!