Oops, an error
Loading. Please wait.

Used For Glue Bass Tab

version 1
version 1

Whole song

Interactive

717 views 1 this week
1 commentread comment
1 2 3 4 5
please rate
add to favorites
launch autoscroll
font size
0
reset
guitar tuner
Tab Pro tools
  • play this tab
  • loop segment
  • change instrument
  • show fretboard
  • metronome
×
Best way to learn
"Used For Glue"
Autoscroll
slow
fast
+/-
esc
set tempo
stop
Artist: Rival Schools
Song: Used For Glue
Tabbed by: Tom

Ths is a correcton of my revious tab. The old one was off on 
the verse, and a lttle bit on the chorus, and hell, some parts 
were all over the place. But this should work.

Main Riff (X8)
G|---------------------------
D|---------------------------
A|---------------------------
E|-2-2-2-2-2-2-2-2--2-2-2-2-2

Verse (X2)
G|---------------------------
D|---------------------------
A|---------------------------
E|-0~------------5-7~-------2

Main Riff (X4)

Verse (X2)

Main Riff (X4)

Chorus (X2)
G|--------------------------------------
D|--------------------------------------
A|--------------------------------------
E|-2--2-X-X-X-5-5--5-5-0-0--0-0-0--0-0-0

End Chorus (X1)
G|--------------------------------------
D|--------------------------------------
A|--------------------------------------
E|-2--2-X-X-X-5-5--5-5-0----------------

Main Riff (X2)

Verse (X2)

Main Riff (X4)

Chorus (X3)

End Chorus (X1)

Bridge Thingy (X4)
G|-------------
D|----4---4---4
A|-------------
E|-2----2---2--

Main Riff (X11)

Chorus (X5)

End Chorus (X1)


Okay that's it. Any comments or whatever, send em to
bassmonkey24@hotmail.com
comments
We did not receive enough feedback on this tab! Please rate:
print report bad tab
1 2 3 4 5
1 comment total.
0 reply
fumanchu001 wrote on September 23 2014, 04:21 pm

Rival Schools - Used For Glue

TUNING: Drop D Tuning ( D A D G )

KEY: (~) - Let Specified Note Ring

INTRO
G|---------------------------------------------------------------------------|
D|---------------------------------------------------------------------------|
A|---------------------------------------------------------------------------|
D|--44444444--4444444--44444444--4444444--44444444-4444444-44444444-4444444--|

G|---------------------------------------------------------------------------|
D|---------------------------------------------------------------------------|
A|---------------------------------------------------------------------------|
D|--44444444--4444444--44444444--4444444--44444444-4444444-44444444-4444444--|

VERSE 1
G|---------------------------------------------------------------------------|
D|---------------------------------------------------------------------------|
A|--------5~~~------5~~~-----------------------------------------------------|
D|--0~~~~~~~~7/0~~~7---7/-44444444-4444444-44444444-4444444-4444444-4444444--|

G|---------------------------------------------------------------------------|
D|---------------------------------------------------------------------------|
A|-------------------------5~~~~------5~~~-----------------------------------|
D|--44444444-4444444-0~~~~7----7/0~~~7---7/44444444-4444444-44444444-4444444-|

G|---------------------------------------------------------------------------|
D|---------------------------------------------------------------------------|
A|---------------------------------------------------------------------------|
D|-44444444-4444444-44444444-4444444-----------------------------------------|

CHORUS 1
G|---------------------------------------------------------------------------|
D|---------------------------------------------------------------------------|
A|---------------------------------------------------------------------------|
D|--4-4-44-55-5-5-0-0-00-0-0-0-00--4-4-44-55-5-5-0-0-00-0-0-0-00-------------|

G|---------------------------------------------------------------------------|
D|---------------------------------------------------------------------------|
A|---------------------------------------------------------------------------|
D|--4-4-44-55-5-5-0~-----44444444-4444444-44444444-4444444-------------------|

VERSE 2
G|---------------------------------------------------------------------------|
D|---------------------------------------------------------------------------|
A|--------5~~~------5~~~-----------------------------------------------------|
D|--0~~~~~~~~7/0~~~7---7/-44444444-4444444-44444444-4444444-4444444-4444444--|

G|---------------------------------------------------------------------------|
D|---------------------------------------------------------------------------|
A|---------------------------------------------------------------------------|
D|--444444444-4444444--------------------------------------------------------|

CHORUS 2
G|---------------------------------------------------------------------------|
D|---------------------------------------------------------------------------|
A|---------------------------------------------------------------------------|
D|--4-4-44-55-5-5-0-0-00-0-0-0-00--4-4-44-55-5-5-0-0-00-0-0-0-00-------------|

G|---------------------------------------------------------------------------|
D|---------------------------------------------------------------------------|
A|---------------------------------------------------------------------------|
D|--4-4-44-55-5-5-0-0-00-0-0-0-00-4-4-44-55-5-5-0~---------------------------|

BRIDGE
G|---------------------------------------------------------------------------|
D|--4~---4~--4~--4~--4~---4~---4~---4~----4~---4~---4~-----------------------|
A|---------------------------------------------------------------------------|
D|----4~---4~--4~--4~---4~---4~---4~---4~---4~----4~---4~--------------------|

GUITAR SOLO (Pretty much sixteenth D notes the whole solo except the F#/Gb)
G|---------------------------------------------------------------------------|
D|---------------------------------------------------------------------------|
A|---------------------------------------------------------------------------|
D|--00000000000000000000000000000000000000000000000000000000000--------------|

G|----------------------------------------------------------------------------|
D|----------------------------------------------------------------------------|
A|----------------------------------------------------------------------------|
D|--44444444-4444444-44444444-44444444-00000000000000000000000000000000-longer|

OUTRO CHORUS
G|---------------------------------------------------------------------------|
D|---------------------------------------------------------------------------|
A|---------------------------------------------------------------------------|
D|--4-4-44-55-5-5-0-0-00-0-0-0-00--4-4-44-55-5-5-0-0-00-0-0-0-00-------------|

G|--------

I want to post or [tab]
guest
You may want to rate the tab now too:
select rating
Please do not post tabs as comments. Select "correction" instead!