Oops, an error
Loading. Please wait.

Used For Glue Tab

version 1
version 1

Whole song

Interactive

1,848 views 1 this week
no commentswrite comment
1 2 3 4 5
please rate
add to favorites
launch autoscroll
font size
0
reset
how to read this tab
guitar tuner
Autoscroll
slow
fast
+/-
esc
set tempo
stop
Help us to improve Ultimate-Guitar.com Take our survey!
×
Used for glue -- by Rival schools (from the album 'United by fate')

Tabbed by John Halfpenny (jhalfpenny@excite.com)

Drop D-tuning (DADGBe), turn off that reverb- you have to make 
sure during the main riff that the stops are *total* *full* *stops*.

You'll have to piece it all together, it really is an easy tune 
to play and I'm not your mum, I'm not going to hold your hand and 
tell you every little nuance or slip to play- what's wrong with you? 
Get a grip will ya? ;)

Intro

e |--------------------------------|     |--------------------------------|
B |1010101010----------------------|     |1010101010----------------------|
G |9-9-9-9-9-----------------------|     |8-8-8-8-8-----------------------|
D |7-7-7-7-7-----------------------|     |7-7-7-7-7-----------------------|
A |--------------------------------|     |--------------------------------|
D |--------------------------------|     |--------------------------------|

e |--------------------------------|     |--------------------------------|
B |1010101010----------------------|     |1010101010----------------------|
G |9-9-9-9-9-----------------------|     |9-9-9-9-9-----------------------|
D |7-7-7-7-7-----------------------|     |7-7-7-7-7-----------------------|
A |--------------------------------|     |--------------------------------|
D |--------------------------------|     |--------------------------------|


Main riff (Riff1)

e |--------------------------------|     |--------------------------------|
B |--------------------------------|     |--------------------------------|
G |--------------------------------|     |--------------------------------|
D |4-4-4-4-4-4-4-4---4-4-4-4-4-4-4-| after 1st & 2nd time, go to riff2
G |----0---------0---------0-------|
D |4-----------4---------4---------| - - > after 3rd time, go to riff1 bar 2
A |--------------------------------|       
D |--------------------------------|       


(Riff2)

e |--------------------------------|     |--------------------------------|
B |--------------------------------|     |--------------------------------|
G |--------------------------------|     |--------------------------------|
D |4-------4-----4---5-5---5---0-0-|     |0-------------------------------|
A |4-------4-----4---5-5---5---0-0-|     |0-------------------------------|
D |4-------4-----4---5-5---5---0-0-|     |0-------------------------------|


Outro (Riff4)

e |--------------------------------|
B |--------------------------------|
G |--------------------------------|
D |4-4-4-4---4-4-4---4---4-4-4-4-4-|
A |4-4-4-4---4-4-4---4---4-4-4-4-4-|
D |4-4-4-4---4-4-4---4---4-4-4-4-4-|


Lyrics

Days of the conflicts you've been in
Traces of conscience you don't want to hear
You hear it now, you listen
You hear a sound, you missed it

Taken by conscience or taken by guilt
You live in the problems you decided to build
You hear it now, you listen
And hear a sound that can't be still

The blame was found
You got it, you got it rode when she was new then used for glue- yeah

Dazed for a time you were into
Face for a crowd that you wanted to fool
You call them now they're waiting
To hear a sound that can't be still

The blame was found
You got it, you got it rode when she was new but wasn't told when she was through- yeah

Listen to a sound that can't be still

The blame was found
You got it, you got it rode when she was new but wasn't told when she was through
The blame was found
Rode when she was new but wasn't told when she was through
The blame was found
Rode when she was new but wasn't told when she was through

====


Song : Used For Glue
Band : Rival Schools
Creator : Walter Schreifels
Album : United By Fate
Tab By : Stuart Dunlop (sd__18@hotmail.com)
Notes : Standard Tuning

The Key


h: Tremolo Down
p: Pull Off Tremolo Arm
b: Bend Current String
/: Slide Up
\: Slide Down
x: Scrape Strings
~: let RingThis is only Guitar One part For the time being, I will 
soon be adding the Intro, solo, all guitar 2, Outro & the playing Layout. 

Sorry about the changes being made my Guitar wasn't tuned 
properly turns out it had been mucked about with, this is right i think! :-)

Verse 
~~~~~


E|--------------------|   
B|--------------------|
G|--------------------|
D|---7-777\121212-----|
A|---7-777\121212-----| (1x) Then play
e|---5-555\101010-----|    


E|-------------------------|
B|-------------------------|
G|-------------------------|
D|---7-777\121212/777------|
A|---7-777\121212/777------| (7x) Then
e|---5-555\101010/555------|


E|--------|
B|--------|
G|--------|
D|--777---|   (1x) 
A|--777---| 
e|--555---| 

Chorus 
~~~~~~

Let ring and feedback towards the end

E|--------x-x------------|
B|--------x-x------------|
G|--------x-x------------|
D|---4-4--x-x—5-5/-0~~---|
A|---4-4--x-x—5-5/-0~~---|
e|---4-4--x-x—5-5/-0~~---| 


Outro
~~~~~


E|------------------|
B|------------------|
G|------------------|
D|--7777-77-7-777/-0|   
A|--7777-77-7-777/-0| 
e|--5555-55-5-555/-0| 

Lookout for more guitar tabs from United By Fate, which 
I will be adding in the near future.

                                   RIVAL SCHOOLS ROCK!!!
Suggest correction new What's this?
You can suggest a correction to this tab. Community and Mods will review your correction and vote to approve or reject it.
comments
We did not receive enough feedback on this tab! Please rate:
print report bad tab
1 2 3 4 5
guest
You may want to rate the tab now too:
select rating
Please do not post tabs as comments. Select "correction" instead!