Oops, an error
Loading. Please wait.

Electric Man tab

version 2
version 2

Whole song

5,354 views 21 this week
2 commentsread comments
1 2 3 4 5
x 4
add to favorites
×
Save as Personal and add changes to this tab that will be seen only by you. Learn more ›
×
You can save this tab as Personal to edit and correct it or add notes. All changes will be seen only by you. Learn more »
launch autoscroll
font size
0
reset
how to read this tab
guitar tuner
edit
Autoscroll
slow
fast
+/-
esc
set tempo
stop
Author
Electric Man - Rival Sons
Tabbed By : Aeonoptic
e-mail: aeonoptic@gmail.com
Tuning: EADGBe

E|---------------|------|--------------------|------------------|---------------------|---------------|
B|---------------|------|--------------------|------------------|---------------------|---------------|
G|---------------|------|--------------------|------------------|---------------------|---------------|
D|7-5-3----------|------|7-5-3---------3-----|7-5-3----------3--|7-5-3----------3-----|7-5-3----------|
A|------5----3--5|------|------5---3-5---5-5~|------5---3-5----5|------5---3-5----5-5~|------5----3--5|
E|--------5------|------|--------5-----------|--------5---------|--------5------------|--------5------|

D
Yeah, hot lady hot lady,
                   (riff 1)
You're my sexy girl 
Woaah, hot lady,
                         (riff 1)
Gotta make you understand
Woah, hot lady hot lady,
                   (riff 1)
You're my sexy girl 
Yeah hot lady,
Gonna take you to the Promised Land.

  (Riff 1)        (Riff 2)
E|---------------|-------------------|
B|---------------|-------------------|
G|---------------|-------------------|
D|7-5-3----------|7-5-3---------3----|
A|------5----3--5|------5---3-5---5-5|
E|--------5------|--------5----------|

  D          C          F              D                
E|----------|----------|--------------|-----------|     
B|----------|----------|--------------|-----------|     
G|5-7--7-7-7|7-5--5-5-5|5/10--10-10-10|10-7--7-7-7|     
D|----------|----------|--------------|-----------|     
A|3-5--5-5-5|5-3--3-3-3|3/8---8--8--8-|8--5--5-5-5| x2  
E|----------|----------|--------------|-----------|    
 
D    C                             F  D
I’ll take you to the Promised Land,

To the Promised Land,
          C                             F D (Riff 1)                    
I’m gonna take you to the Promised Land.
                    (Riff 2)                
’Cause I'm electric,
          (Riff 1)      
 yes I am,
(Riff 2)                            (Riff 1)
I'm electric, I'm your electric man.
                
                                                (Riff 1)
Whoa, hot lady, hot lady, you’re my sexy girl,
                                                (Riff 1)
Yeah, hot lady, gonna drive you like a Cadillac.
                                                (Riff 1)
Whoa, hot lady, hot lady, you’re my sexy girl,                          
Yeah, hot lady gonna take you to the Sugar Shack.
D    C                          F
I’ll take you to the Sugar Shack,
D
Take you to the sugar shack,
    C                                 F
I’m gonna take you to the sugar shack.

D
(Riff 1)            
’Cause I'm electric,
(Riff 2)
Yes I am,
(Riff 1)
I'm electric,
(Riff 2)
I'm your electric man.
(Riff 1)
I'm electric
(Riff 2)
Yes I am,
(Riff 1)
Oh, I'm electric, 
(Riff 1)          D
I'm your electric man.
C                       F D
I'm your electric man,
Electric man,
C                       F D
I'm your electric man,

  F#            E           A              F#
E|-------------|-----------|--------------|---------------|
B|-------------|-----------|--------------|---------------|
G|/11--11-11-11|11\9--9-9-9|9/14--14-14-14|14\11--11-11-11|
D|-------------|-----------|--------------|---------------|
A|/9---9--9--9-|9-\7--7-7-7|7/12--12-12-12|12\9---9--9--9-|
E|-------------|-----------|--------------|---------------|

         F#
Electric man, 
E                     A F#
I'm your electric man,
Electric man,
E    A                      (Riff 1)
Aaah, I'm your electric man!
 
Solo (Riffs 1 & 2 alternate beneath)
E|----------------|----------------------|------------------|------------------|--------------------|
B|----------------|13b15--10b-12b-13b-12b|14--13-13-13-13-13|14--13-13-13-13-13|13pbr15----------10b|
G|---------10-----|-------10b-12b-13b-12b|14--13-13-13-13-13|14--13-13-13-13-13|---------10b-----10b|
D|12----10----12~~|----------------------|------------------|------------------|--------------12----|
A|---12-----------|----------------------|------------------|------------------|--------------------|
E|----------------|----------------------|------------------|------------------|--------------------|

E|----------------------------|---------------------|-------------------------------------|
B|----------------------------|-------------8b10~~~~|-------------------------------------|
G|---10b--10-10-10-10-10-10-10|10-10p7--------------|10b----------------------------------|
D|12--------------------------|--------10-7---------|-----12-12-12-12--12b----------------|
A|----------------------------|---------------------|----------------------12p10----10----|
E|----------------------------|---------------------|----------------------------13----13b|

E|-----8----8b|-----------------|
B|8/11---11---|10b--12b--13b-12b|
G|------------|10b--12b--13b-12b|
D|------------|-----------------|
A|------------|-----------------|
E|------------|-----------------|

Riffs continue underneath outro chorus as before

I'm electric,
Yes I am,
I'm electric,
I'm your man.
I'm electric, 
Yes I am,
I'm electric,
I'm your electric man.
I'm your electric man,
I'm your electric man, 
I'm your electric man,
I'm your electric man.
I said electric man,
Electric man,
Electric man,
Electric man,
Yeah.

************************************

| ~    Vibrato
| /    Slide up
| \    Slide down
| b    Bend
| pbr  Pre-bend release
| p    Pull-off

************************************

            
            
Suggest correction
Creating personal tab
Creating personal tab
You can edit any tab online and save it as your Personal.

You can edit, replace or remove any tab part or add personal notes – all changes will be seen only by you.

Personal tabs can be accessed anytime from any device, even offline.
Learn more »
comments
print report bad tab
2 comments total.
0 reply
cedricmarais 10 Jun 25, 2016 01:07 AM

The riff part is wrong. There is an easier way to play that part. You can find an good example on Youtube. Check out the video with the man with a black and white Strat. ("Rival Sons Electric Man guitar cover") ;-)

guest
You may want to rate the tab now too:
select rating
Wanna post a correction for this tab? Suggest correction