Oops, an error
Loading. Please wait.

Good Things tab

1,885 views 15 this week
no commentswrite comment
1 2 3 4 5
x 4
add to favorites
×
Save as Personal and add changes to this tab that will be seen only by you. Learn more ›
×
You can save this tab as Personal to edit and correct it or add notes. All changes will be seen only by you. Learn more »
launch autoscroll
font size
0
reset
how to read this tab
guitar tuner
edit
Autoscroll
slow
fast
+/-
esc
set tempo
stop
Author
Difficulty
--------------------------------------------------------------
                     Good Things - Rival Sons                                                            
--------------------------------------------------------------

Tabbed By : Aeonoptic
e-mail: aeonoptic@gmail.com

Tuning: EADGBe

  Amin  C                       D                           Amin
        Good things will happen Bad things will happen, too
E|-----|-----------------------|---------------------------|----------|
B|-----|5----------------------|7--------------------------|----------|
G|7pbr9|5----------------------|7--------------------------|7pbr9-----|
D|-----|5----------------------|7--------------------------|----------|
A|-----|3----------------------|5--------------------------|----------|
E|-----|-----------------------|---------------------------|----------|

  C                                    D                                   Amin
  Sometimes it's someone down the road Sometimes it's somebody next to you
E|------------------------------------|-----------------------------------|-------|
B|5-----------------------------------|7----------------------------------|-------|
G|5-----------------------------------|7----------------------------------|7pbr9--|
D|5-----------------------------------|7----------------------------------|-------|
A|3-----------------------------------|5----------------------------------|-------|
E|------------------------------------|-----------------------------------|-------|

               C
Enjoy it right now
        D             Amin
Because you never know
When it's gonna end
               C
Enjoy it right now
        D             Amin
Because you never know
When it's gonna end

C                      D                Amin
37 people on the train sank into below

E|-------------------|
B|-------------------|
G|----5h7~~----7-5---|
D|5h7--------7-----7\|
A|-------------------|
E|-------------------|

C                             D                Amin
Supposed to get to Greenville right about 5:45

E|------------------------|
B|5h8~~--5----------------|
G|---------7-5---5-7-5----|
D|-------------7-------7~~|
A|------------------------|
E|------------------------|
        
            C                                                Amin
There was a boy with a bomb in his jacket that didn't explode

E|5\-------|
B|5\-------|
G|5\-------|
D|---------|
A|---------|
E|---------|

   C                                                Amin
So everybody made it home and went to bed that night

E|------------------------------|
B|----8h10~~--10-10-8---8--5----|
G|7-9-----------------9------5--|
D|-----------------------------7|
A|------------------------------|
E|------------------------------|

  C                       D                           Amin
  Good things will happen Bad things will happen, too
E|-----------------------|---------------------------|----------|
B|5----------------------|7--------------------------|----------|
G|5----------------------|7--------------------------|7pbr9-----|
D|5----------------------|7--------------------------|----------|
A|3----------------------|5--------------------------|----------|
E|-----------------------|---------------------------|----------|

  C                                    D                                   Amin
  Sometimes it's someone down the road Sometimes it's somebody next to you
E|------------------------------------|-----------------------------------|-------|
B|5-----------------------------------|7----------------------------------|-------|
G|5-----------------------------------|7----------------------------------|7pbr9--|
D|5-----------------------------------|7----------------------------------|-------|
A|3-----------------------------------|5----------------------------------|-------|
E|------------------------------------|-----------------------------------|-------|

               C
Enjoy it right now
        D             Amin
Because you never know
When it's gonna end
               C
Enjoy it right now
        D             Amin
Because you never know
When it's gonna end

Amin                     E                      Amin
My papa got a job at the mill when he was just 19

E|-----8--8--------|-------------|
B|---8------10-8---|-------------|
G|/9-------------9-|7-9-5-7------|
D|-----------------|--------7-7-7|
A|-----------------|-------------|
E|-----------------|-------------|

Amin                                Emin                        Amin
He had my mama and my sister and he knew he had to make us a home

E|10b12~--8----8-----|---------------|
B|----------10---10~~|---------------|
G|-------------------|5h7-5-----5----|
D|-------------------|------7-----5h7|
A|-------------------|---------------|
E|-------------------|---------------|
        
C                                                  Amin
And after 43 years retirement was more than just a dream

E|5\---|
B|5\---|
G|5\---|
D|-----|
A|-----|
E|-----|

C                                                     Amin
They let him off last week and told him he was on his own

E|-----------------|---------------------|
B|8----------------|--------------------5|
G|7b9--7-5--------5|7b9-7-5-------------5|
D|---------7--5-7--|--------5h7~~-------5|
A|-----------------|--------------------3|
E|-----------------|---------------------|

C
Good things will happen
D                          Amin
Bad things will happen, too

E|----------|
B|----------|
G|5\\\\\\\\\|
D|----------|
A|----------|
E|----------|

               C
Sometimes it's someone down the road
          D                         Amin
Sometimes it's somebody next to you

E|--------|
B|--------|
G|9\\\\\\\|
D|--------|
A|--------|
E|--------|

              C
Enjoy it right now
        D             Amin
Because you never know
When it's gonna end
               C
Enjoy it right now
        D             Amin
Because you never know
                    E
When it's gonna end

E|-------------------|---------------------------|15\12-12~~|15\10-10~~|12\10-8--10-8----|-----------|
B|-------------------|5h8~--8-5---------5--------|----------|----------|--------------10~|---8-10-10~|
G|----5h7~~-7---7-5--|----------5-5-5-7---5------|----------|----------|-----------------|/9---------|
D|5h7---------7-----7|----------------------7~~~~|----------|----------|-----------------|-----------|
A|-------------------|---------------------------|----------|----------|-----------------|-----------|
E|-------------------|---------------------------|----------|----------|-----------------|-----------|

E|-------------|8p5--------------|
B|--------8-10~|----8p5--5-------|
G|----7--------|-----------7-5---|
D|5h7----------|---------------7~|
A|-------------|-----------------|
E|-------------|-----------------|

C
Good things will happen
D                          Amin
Bad things will happen, too

E|----------|
B|----------|
G|5\\\\\\\\\|
D|----------|
A|----------|
E|----------|

               C
Sometimes it's someone down the road
          D                         Amin
Sometimes it's somebody next to you

E|--------|
B|--------|
G|9\\\\\\\|
D|--------|
A|--------|
E|--------|

              C
Enjoy it right now
        D             Amin
Because you never know
When it's gonna end
               C
Enjoy it right now
        D             Amin 
Because you never know
                    E
When it's gonna end

Amin
Nobody knows for sure what happened that day

E|15/17~--17\15~|
B|--------------|
G|--------------|
D|--------------|
A|--------------|
E|--------------|

He went off into the woods and said you had to be alone

E|17~~---17/20~~|
B|--------------|
G|--------------|
D|--------------|
A|--------------|
E|--------------|

When you came home that night you know you had nothing to say
And there were cuts on your body and your eyes looked just like stone

E|17\15~~---15/17~~|
B|-----------------|
G|-----------------|
D|-----------------|
A|-----------------|
E|-----------------|

C
Good things will happen
D                          Amin
Bad things will happen, too

E|----------|
B|----------|
G|5\\\\\\\\\|
D|----------|
A|----------|
E|----------|

               C
Sometimes it's someone down the road
          D                         Amin
Sometimes it's somebody next to you

E|--------|
B|--------|
G|9\\\\\\\|
D|--------|
A|--------|
E|--------|

              C
Enjoy it right now
        D             Amin
Because you never know
When it's gonna end
               C
Enjoy it right now
        D             Amin 
Because you never know            
When it's gonna end

Amin
I said good things will happen
Bad things...
Good things will happen,
Bad things will happen too
Mmm Mmm Mmm Mmmm
Mmmmmm 

E|8-8/10--8/10-8|-------------8/10-8-8/10|8-10-8-10/12~~|15\12-12~~--15\10-10~~|12\10-8-10-8------------------|
B|--------------|10\8/10~~~--------------|--------------|----------------------|-------------10~~------8-10-10|
G|--------------|------------------------|--------------|----------------------|--------------------/9--------|
D|--------------|------------------------|--------------|----------------------|------------------------------|
A|--------------|------------------------|--------------|----------------------|------------------------------|
E|--------------|------------------------|--------------|----------------------|------------------------------|

                                         fade out
E|-----|5--8p5-----------|--------------|
B|-----|------8p5--------|--------------|
G|----7|----------7p5-5--|7/9-7-5--7----|
D|-----|-----------------|-----------5-7|
A|-----|-----------------|--------------|
E|-----|-----------------|--------------|

| /  slide up
| \  slide down
| h  hammer-on
| p  pull-off
| ~  vibrato
| +  harmonic
| x  Mute note

            
            
Suggest correction
Creating personal tab
Creating personal tab
You can edit any tab online and save it as your Personal.

You can edit, replace or remove any tab part or add personal notes – all changes will be seen only by you.

Personal tabs can be accessed anytime from any device, even offline.
Learn more »
comments
print report bad tab
guest
You may want to rate the tab now too:
select rating
Wanna post a correction for this tab? Suggest correction