Oops, an error
Loading. Please wait.

Jordan Acoustic tab

1,336 views 21 this week
no commentswrite comment
1 2 3 4 5
3 more votes to show rating
add to favorites
×
Save as Personal and add changes to this tab that will be seen only by you. Learn more ›
×
You can save this tab as Personal to edit and correct it or add notes. All changes will be seen only by you. Learn more »
launch autoscroll
font size
0
reset
how to read this tab
guitar tuner
edit
Autoscroll
slow
fast
+/-
esc
set tempo
stop
About this tab version
This tab is in the original tuning. Was this info helpful? Yes No
Guitar tuning: Open G (DGDGBD)

[Intro]
D|-0--0--0--0--0---0---0---10---5---0--|
B|-0--1--1--0--1s3-3s1-0---10---5---0--|
G|-0--2--2--0--2s4-4s2-0---10---5---0--|
D|-0--0--0--0--0---0---0---10---5---0--|  (x4)
G|-0--0--0--0--0---0---0---10---5---0--|
D|-0--0--0--0--0---0---0---x----x---0--|

[Verse]
The wolves look to the moon
And the ocean to the sky
I've looks to my whole life
Now I have to say goodbye
But to say that I've lost you
It's a selfish thing to say
I've never seen nothing as beautiful
As watching you slip away
But to say that I've lost you
It's a selfish thing to say
I've never seen nothing as beautiful
As watching you slip away

D|----5---0--0--0--0--0---0--0--|
B|-3--5---0--1--1--0--1s3-3--3--|
G|----5---0--2--2--0--2s4-5--4--|
D|-4--5---0--0--0--0--0---5--0--| (x7)
G|-4--5---0--0--0--0--0---0--0--|
D|-2--x---0--0--0--0--0---0--0--|

[Pre-Chorus]
(ooeeehh)
D|-5--5-5--5--7--5--x---0--------0---0---0---0------0--|
B|-5--8-8--5--5--5--4-----4------0---1s3-3s1-0------0--|
G|-5--5-5--5--5--5--5-------5----0---2s4-4s2-0------0--|
D|-5--5-5--5--5--5--5---------5--0---0---0---0--2p0-0--|
G|-5--5-5--5--5--5--0------------0---0---0---0------0--|
D|-x--x-x--x--x--x--x------------0---0---0---0------0--|

[Chorus]
I'd rather see you go in the arms of your angels
Than to keep you right here with me
I'll meet you on the other side of the Jordan
Now let your soul go free

D|-10---5---0---0---0---------0---|
B|-10---5---0---1s3-3s1-------0---|
G|-10---5---0---2s4-4s2p0-----0---|  (x2)
D|-10---5---0---0---0-----2p0-----|
G|-10---5---0---0---0-------------|
D|-10---5---0---0---0-------------|

D|-10---5---0---10---5---0----10---5---0---0---0---------0---|
B|-10---5---3---10---5---0----10---5---0---1s3-3s1-------0---|
G|-10---5---0---10---5---0----10---5---0---2s4-4s2p0-----0---|
D|-10---5---4---10---5---0----10---5---0---0---0-----2p0-----|
G|-10---5---4---10---5---0----10---5---0---0---0-------------|
D|-10---5---2---10---5---0----10---5---0---0---0-------------|

[Bridge]
D|-0--0--0--0--0--0--0--|
B|-0--1--3--5--8--10-12-|
G|-0--2--4--5--7--9--12-|
D|-0--0--0--0--0--0--0--|
G|----------------------|
D|----------------------|

[Verse]
You did it all with feeling
And failure, you took it gracefully
You said third star to the right
And straight on until morning
When you need me, you know
That's where I'll be
Now the rest of my life without you
Right now it's hard to conceive
You said, don't cry form me now
You've got to remember
There is no death for those that believe

[Chorus]
I'd rather see you go in the arms of your angels
Than to keep you right here with me
I'll meet you on the other side of the Jordan
Now let your soul go free

[Bridge]
D|-0--0--0--0--0--0--0--|
B|-0--1--3--5--8--10-12-|
G|-0--2--4--5--7--9--12-|
D|-0--0--0--0--0--0--0--|
G|----------------------|
D|----------------------|

[Chorus]
On the other side of the Jordan
Than let your soul go free
in the arms of your angels
than keep you right here with me
I'll meet you on the other side of the Jordan
Than to keep you right here with me
Rather see you go in the arms of your angels
Than let your soul be free


************************************

| x  Dead note
| p  Pull-off
  

************************************

            
            
Suggest correction
Creating personal tab
Creating personal tab
You can edit any tab online and save it as your Personal.

You can edit, replace or remove any tab part or add personal notes – all changes will be seen only by you.

Personal tabs can be accessed anytime from any device, even offline.
Learn more »
Give kudos to tab author, rate the tab!
1 2 3 4 5
comments
print report bad tab
guest
You may want to rate the tab now too:
select rating
Wanna post a correction for this tab? Suggest correction