Oops, an error
Loading. Please wait.

Open My Eyes chords

version 2
version 2

Whole song

  • The chords should match the Great Western Valkyrie... Show more
97 views 6 this week
no commentswrite comment
1 2 3 4 5
3 more votes to show rating
add to favorites
×
Save as Personal and add changes to this tab that will be seen only by you. Learn more ›
×
You can save this tab as Personal to edit and correct it or add notes. All changes will be seen only by you. Learn more »
launch autoscroll
font size
0
reset
transpose
0
reset
display chords
guitar tuner
edit
Autoscroll
slow
fast
+/-
esc
set tempo
stop
About this tab version
The chords should match the Great Western Valkyrie album. This version has helper tab for main riff and interlude. Was this info helpful? Yes No
Strumming
There is no strumming pattern for this song yet. and get +5 IQ
KEY=D, TUNING=DROP D

[MAIN RIFF]
e|---------------|---------------|
B|---------------|---------------|
G|---------------|---------------|
D|---------------|---------------|
A|-5-3-----------|----3/5--------|
D|-----7-5-7-5-3-|3-5------------|

[VERSE 1]
D
too many people,
C
coming and a going
F                     G
in and out of my life
D            C
in the night, in the day,
             F                G
i've got to make it on my own
D
somebody asked me,
C
how do you do it?
F                            G
tell them that i'm justified
D             C
but the truth,  to myself
           F              G
you know i feel so alone

[INTERLUDE]
e|----------10----------|---------8--------|----------8----------|---------8------|
B|-------11----11----11-|-------9---9----9-|-------10---10----10-|-------9---9----|
G|----12----------12----|----10-------10---|----10---------10----|----10-------10-|
D|-12-------------------|-10---------------|-10------------------|-10-------------|
A|----------------------|------------------|---------------------|----------------|
D|----------------------|------------------|---------------------|----------------|
                                                                                 
e|----------10----------|---------8--------|----------8----------|----------------|
B|-------11----11----11-|-------9---9----9-|-------10---10----10-|----------------|
G|----12----------12----|----10-------10---|----10---------10----|----------------|
D|-12-------------------|-10---------------|-10------------------|----------------|
A|----------------------|------------------|---------------------|--------2-3-4---|
D|----------------------|------------------|---------------------|4-5-6-7---------|

[CHORUS] 
(Repeat 2x)
D       F         G
somebody, somebody, somebody
N.C.
come and open my eyes

[MAIN RIFF]
e|---------------|---------------|
B|---------------|---------------|
G|---------------|---------------|
D|---------------|---------------|
A|-5-3-----------|----3/5--------|
D|-----7-5-7-5-3-|3-5------------|

[VERSE 2]
D
complicate the matter
C
playing on the weakness
F                     G
taking all of my time
D            C
i'll go down, with the ship
        F                  G
to the bottom like a stone
D
falling off the ladder
C
holy water hell hound
F                         G
folding like a jack knife
D            C
but the truth to myself
            F                      G
you know it cuts through the bone

[INTERLUDE]

[CHORUS] 
(Repeat 3x)
D       F         G
somebody, somebody, somebody
N.C.
come and open my eyes

[SOLO]
(RHYTHYM PLAYS CHORUS 4x)

YEAH!
[OUTRO] 
(play main riff 6x, play low d last note)
N.C.
somebody, somebody, somebody
come and open my eyes

            
            
Suggest correction
Creating personal tab
Creating personal tab
You can edit any tab online and save it as your Personal.

You can edit, replace or remove any tab part or add personal notes – all changes will be seen only by you.

Personal tabs can be accessed anytime from any device, even offline.
Learn more »
Give kudos to tab author, rate the tab!
1 2 3 4 5
comments
print report bad tab
guest
You may want to rate the tab now too:
select rating
Wanna post a correction for this tab? Suggest correction