Oops, an error
Loading. Please wait.

Four Leaf Clover Tab

164 views 1 this week
no commentswrite comment
1 2 3 4 5
1 last vote to show rating
add to favorites
launch autoscroll
font size
0
reset
how to read this tab
guitar tuner
Autoscroll
slow
fast
+/-
esc
set tempo
stop
Help us to improve Ultimate-Guitar.com Take our survey!
×
Author
Difficulty
intermediate
-------------------------------------------------------------------------------
     Four Leaf Clover - Rival State
-------------------------------------------------------------------------------
Tabbed by: Nimal Fernando
E-mail: nimal@rivalstate.net

Tuning:Standard

Music Video Link: http://www.youtube.com/watch?v=qN0MU6DF16o

e|---------------------------------------------------------------------------|
B|---------------------------------------------------------------------------|
G|---------------------------------------------------------------------------| x2
D|-5-5-5-5-5-------9-9-9-9-9-10-10-6-5-5-5-5-5-------9-9-9-9--10-6-----------|
A|-5-5-5-5-5---5---9-9-9-9-9-10-10-6-5-5-5-5-5---5---9-9-9-9--10-6-----------|
E|-3-3-3-3-3-7---6-7-7-7-7-7-8--8--4-3-3-3-3-3-7---6-7-7-7-7--8--4-----------|

e|----------------------------------------------------------------------------|
B|----------------------------------------------------------------------------|
G|----------------------------------------------------------------------------|
D|-5-5-5-5-5-------9-9-9-9-9-10-10-6-5-5-5-5-5--------------------------------|
A|-5-5-5-5-5---5---9-9-9-9-9-10-10-6-5-5-5-5-5---5-----5h7p5---5--------------|
E|-3-3-3-3-3-7---6-7-7-7-7-7-8--8--4-3-3-3-3-3-7---6---------7---7-6-5-5-6-7\-|


e|-----------------|
B|-7-7-------------|
G|-------7~--------|
D|-----9---7-7-8---|
A|---------7-7-8---|
E|---------5-5-6---|

Verse 1: Guitar 1 (Rhythm) Mostly Palmuted
e|----------------------------------------------------------------------------|
B|----------------------------------------------------------------------------|
G|----------------------------------------------------------------------------|
D|-99999999999999999999999999999-7-7-8------------------55555555-44444-7-7-12-|
A|-99999999999999999999999999999-7-7-8-7777777777777777-55555555-44444-7-7-12-|
E|-77777777777777777777777777777-5-5-6-0000000000000000-33333333-22222-5-5-10-|

e|----------------------------------------------------------------------------|
B|----------------------------------------------------------------------------|
G|----------------------------------------------------------------------------|
D|-99999999999999999999999999999-7-7-8------------------55555555-44444-7-7-8--|
A|-99999999999999999999999999999-7-7-8-7777777777777777-55555555-44444-7-7-8--|
E|-77777777777777777777777777777-5-5-6-0000000000000000-33333333-22222-5-5-6--|

Verse 1: Guitar 2 (Lead) (Comes in half way) Octave pedal used
e|-----------------------------------------------------------|
B|-7-7-----------7-7-----------7-7-----------7-7-------------|
G|-------7---7-9-------7---7-9-------7---7-9-------7---------|
D|-----9---9---------9---9---------9---9---------9---7-7-8---|
A|---------------------------------------------------7-7-8---|
E|---------------------------------------------------5-5-6---|

e|-----------------------------------------------------------|
B|-7-7-----------7-7-----------7-7-----------7---------------|
G|-------7---7-9-------7---7-9-------7---7-9---9-7---7-------|
D|-----9---9---------9---9---------9---9-----------9---7-7-8-|
A|-----------------------------------------------------7-7-8-|
E|-----------------------------------------------------5-5-6-|


Pre Chorus 1:
e|--------------------|
B|-44444444-55555555--|
G|--------------------|
D|-44444444-55555555--|
A|-22222222-33333333--|
E|--------------------|


Chorus 1:
e|-----------------------------------------------------------------|
B|----------44444444----------55555555----------444444444444-------|
G|----------44444444----------55555555----------444444444444-------|
D|-55555555-44444444-22222222-55555555-55555555-444444444444-10-6--|
A|-55555555-22222222-22222222-33333333-55555555-222222222222-10-6--|
E|-33333333----------00000000----------33333333--------------8--4--|

e|----------------------------------------------------------------------------|
B|----------------------------------------------------------------------------|
G|----------------------------------------------------------------------------|
D|-5-5-5-5-5-------9-9-9-9-9-10-10-6-5-5-5-5-5--------------------------------|
A|-5-5-5-5-5---5---9-9-9-9-9-10-10-6-5-5-5-5-5---5-----5h7p5---5--------------|
E|-3-3-3-3-3-7---6-7-7-7-7-7-8--8--4-3-3-3-3-3-7---6---------7---7-6-5-5-6----|


Verse 2: Guitar 1 (Rhythm) Mostly Palmuted
e|----------------------------------------------------------------------------|
B|----------------------------------------------------------------------------|
G|----------------------------------------------------------------------------|
D|-99999999999999999999999999999-7-7-8------------------55555555-44444-7-7-12-|
A|-99999999999999999999999999999-7-7-8-7777777777777777-55555555-44444-7-7-12-|
E|-77777777777777777777777777777-5-5-6-0000000000000000-33333333-22222-5-5-10-|

e|----------------------------------------------------------------------------|
B|----------------------------------------------------------------------------|
G|----------------------------------------------------------------------------|
D|-99999999999999999999999999999-7-7-8------------------55555555-44444-7-7-8--|
A|-99999999999999999999999999999-7-7-8-7777777777777777-55555555-44444-7-7-8--|
E|-77777777777777777777777777777-5-5-6-0000000000000000-33333333-22222-5-5-6--|

Verse 2: Guitar 2 (Lead) (Comes in half way) Octave pedal used
e|-----------------------------------------------------------|
B|-7-7-----------7-7-----------7-7-----------7-7-------------|
G|-------7---7-9-------7---7-9-------7---7-9-------7---------|
D|-----9---9---------9---9---------9---9---------9---7-7-8---|
A|---------------------------------------------------7-7-8---|
E|---------------------------------------------------5-5-6---|

e|-----------------------------------------------------------|
B|-7-7-----------7-7-----------7-7-----------7---------------|
G|-------7---7-9-------7---7-9-------7---7-9---9-7---7-------|
D|-----9---9---------9---9---------9---9-----------9---7-7-8-|
A|-----------------------------------------------------7-7-8-|
E|-----------------------------------------------------5-5-6-|


Pre Chorus 2:
e|--------------------|
B|-44444444-55555555--|
G|--------------------|
D|-44444444-55555555--|
A|-22222222-33333333--|
E|--------------------|

Chorus 2:
e|-------------------------------------------------------------------------|
B|----------44444444----------55555555----------44444444----------44444444-|
G|----------44444444----------55555555----------44444444-22222222-44444444-|
D|-55555555-44444444-22222222-55555555-55555555-44444444-22222222-44444444-|
A|-55555555-22222222-22222222-33333333-55555555-22222222-22222222-22222222-|
E|-33333333----------00000000----------33333333----------00000000----------|

Post Chorus 1: Guitar 1 (Rhythm)
e|-------------------------------------------------------------------------|
B|----------44444444----------55555555----------44444444-------------------|
G|----------44444444----------55555555----------44444444-77777777-88888888-|
D|-55555555-44444444-22222222-55555555-55555555-44444444-77777777-88888888-|
A|-55555555-22222222-22222222-33333333-55555555-22222222-55555555-66666666-|
E|-33333333----------00000000----------33333333----------------------------|

Post Chorus 1: Guitar 2 (Very Faint lead octaves in recording, not played live)
e|----------------------------------------------------------------------|
b|----------------------------------------------------------------------|
G|-12-12-12-12-12-12-12-12--11-11-11-11-11-11-11-11--99999999-55555555--|
D|----------------------------------------------------------------------|
A|-10-10-10-10-10-10-10-10--9--9--9--9--9--9--9--9---77777777-33333333--|
E|----------------------------------------------------------------------|

e|------------------------------------------------------------------------------------|
B|------------------------------------------------------------------------------------|
G|-77777777-11-11-11-11-11-11-11-11--12-12-12-12-12-12-12-12--11-11-11-11-11-11-11-11-|
D|------------------------------------------------------------------------------------|
A|-55555555-9--9--9--9--9--9--9--9---10-10-10-10-10-10-10-10--9--9--9--9--9--9--9--9--|
E|------------------------------------------------------------------------------------|

Interlude:
e|----------------------------------------------------|
B|----------------------------------------------------|
G|----------------------------------------------------|x6
D|----------------------------------------------------|
A|------------------------------10h12p10------10------|
E|-0-0-10-12~-0-10-12~-0-10-12~------------12----12---|


Pre Chorus 3:
e|--------------------|
B|-44444444-55555555--|
G|--------------------|
D|-44444444-55555555--|
A|-22222222-33333333--|
E|--------------------|

Chorus 3:
e|-------------------------------------------------------------------------|
B|----------44444444----------55555555----------44444444----------44444444-|
G|----------44444444----------55555555----------44444444-22222222-44444444-|
D|-55555555-44444444-22222222-55555555-55555555-44444444-22222222-44444444-|
A|-55555555-22222222-22222222-33333333-55555555-22222222-22222222-22222222-|
E|-33333333----------00000000----------33333333----------00000000----------|

Post Chorus 2: Guitar 1 (Rhythm)
e|---------------------------------------------------------------------------------------------|
B|----------44444444----------55555555----------44444444-55555555-44444444-77777777-88888888-9-|
G|----------44444444----------55555555----------44444444-55555555-44444444-77777777-88888888-9-|
D|-55555555-44444444-22222222-55555555-55555555-44444444-55555555-44444444-77777777-88888888-9-|
A|-55555555-22222222-22222222-33333333-55555555-22222222-33333333-22222222-55555555-66666666-7-|
E|-33333333----------00000000----------33333333----------------------------------------------0-|


Post Chorus 2: Guitar 2 (Very Faint lead octaves in recording, not played live)
e|------------------------------------------------------------------------------|
b|------------------------------------------------------------------------------|
G|-12-12-12-12-12-12-12-12--11-11-11-11-11-11-11-11--99999999-55555555-77777777-|
D|------------------------------------------------------------------------------|
A|-10-10-10-10-10-10-10-10--9--9--9--9--9--9--9--9---77777777-33333333-55555555-|
E|------------------------------------------------------------------------------|

e|------------------------------------------------------------------------------------------0-|
B|------------------------------------------------------------------------------------------0-|
G|11-11-11-11-11-11-11-11-99999999-11-11-11-11-11-11-11-11-12-12-12-12-12-12-12-12-88888888-9-|
D|------------------------------------------------------------------------------------------9-|
A|-9--9--9--9--9--9--9--9-77777777-9--9--9--9--9--9--9--9--10-10-10-10-10-10-10-10-66666666-7-|
E|------------------------------------------------------------------------------------------0-|




************************************

| /   slide up
| \   slide down
| h   hammer-on
| p   pull-off
| ~   vibrato
| +   harmonic
| x   Mute note
| b   Bend
| pb  Pre-bend
| br  Bend release
| pbr Pre-bend release
| brb Bend release bend

************************************
Suggest correction
Give kudos to tab author, rate the tab!
1 2 3 4 5
comments
print report bad tab
guest
You may want to rate the tab now too:
select rating
Wanna post a correction for this tab? Suggest correction