Oops, an error
Loading. Please wait.

All Yours Chords

10 views 1 this week
no commentswrite comment
1 2 3 4 5
3 more votes to show rating
add to favorites
launch autoscroll
font size
0
reset
transpose
0
reset
display chords
guitar tuner
Autoscroll
slow
fast
+/-
esc
set tempo
stop
Help us to improve Ultimate-Guitar.com Take our survey!
×
Author
Difficulty
Tuning
Capo
novice
D# G# C# F# A# D#
2nd fret
About this tab version
Anchor your ring finger the entire time. Was this info helpful? Yes No
Wanted to provide Chords/Lyrics to this song along with the Riff.
The intro riff is based on the recording off the album.
Sometimes live, Rival Summers does the 4-0-2h4 by hammering on and pulling off

Therefore, it would instead be 4p0-2h4 live.
Enjoy!!


[Song Chords]

D:  x0023x
A:  x0223x
Bm: x24x3x (or x2023x)
G:  3x023x (or 3x003x)


[Intro]

D#|---------x-----------x-----------x-----------x-----------x--------x--|
A#|---------3-----------3-----------3-----------3-----------3--------3--|
F#|---------2-----------0-----------2-----------2-----------x--------0--|
C#|-----0h2-0-------2p0-0-------0h2-0--4-0-2h4--2---4p0-----4-----0--0--|
G#|-0h2-----0---0h2-----x---0h2-----0-----------0-------4p0-2---4----x--|
D#|---------x-----------3-----------x-----------x-----------x--------3--|
                            
D#|---------x-----------x-------x--x---|
A#|---------3-----------3-------3--3---|
F#|---------2-----------2-------0-h2---|
C#|-----0h2-0--4-0-2h4--2---4-0-0--0---|
G#|-0h2-----0-----------0-------x--x---|
D#|---------x-----------x-------3--3---|


[Verse 1]

D
Your arms around my waist
G
My lips against your face
D                             G
I'm the happiest I've ever been
D
You look me in the eyes
G
I'm trying not to cry
D                             G
I'm the happiest I've ever been


[Pre-Chorus]

      A                               G
Let's stay awake and watch the sun come up
  A                                       G
I have you here and I swear that that's enough


[Chorus]

                  Bm
Cause Baby, you amaze me
                     G
Take the breath out of me
                D
Even when i'm sleeping
                    A
I find it hard to breathe
                       Bm
And I've been thinking lately
             G
Maybe I am crazy
              D
When I look around me
              A
You are all I see
          G
I'm all yours


[Verse 2]

D
I hold your hand in mine
G
And for the first time I'm
D                         G
The happiest I've ever been
D
And when I'm alone in bed
G
I wish I was with you instead
D                             G
I'm the happiest I've ever been


[Pre-Chorus]

      A                               G
Let's stay awake and watch the sun come up
  A                                       G
I have you here and I swear that that's enough


[Chorus 2]

                  Bm
Cause Baby, you amaze me
                     G
Take the breath out of me
                D
Even when i'm sleeping
                    A
I find it hard to breathe
                       Bm
And I've been thinking lately
             G
Maybe I am crazy
              D
When I look around me
              A
You are all I see


[Bridge]

        Bm               G
I'm all yours, until my lungs collapse
                      D
And I can't breathe no more
           A
But even then
           Bm                 G
I'll still love you more than anything
       D
You're all I really need
      A   
You're all I really need
      D     
Whoa-oh oh 
G              D
Whoa-oh oh Yeah
   A
Yeeeeeeah
   Bm
Yeeeeeeah


[Instrumental]

G   D   A   A


[Verse 3]

D
Tonight I sit alone
G
On the front porch of my home
D                               G
And the loneliness is sinking in
D
As I watch the cars drive by
G
I can't help but wonder why
D                             G
I'm the lonliest I've ever been


[Pre-Chorus 2]

        A                               G
So I'll stay awake and watch the sun come up
  A                                G
I had you here and I swear that was enough


[Chorus 2]

N.C.              Bm
Cause Baby, you amaze me
                     G
Take the breath out of me
                D
Even when i'm sleeping
                    A
I find it hard to breathe
                       Bm
And I've been thinking lately
             G
Maybe I am crazy
              D
When I look around me
              A
You are all I see


[Repeat Chorus 2]


[Backing Vocals Last Chorus]

Bm
Too late to do things now
G
Sometimes I wish somehow
D
We were together
A
We were together again

Bm
Too late to do things now
G
Sometimes I wish somehow
D
We were together
A
We were together
A    A
Whoa-oh


[Outro]

N.C.      Riff
I'm all Yours

D#|---------x-----------x-----------x-----------x-----------x--------x--|
A#|---------3-----------3-----------3-----------3-----------3--------3--|
F#|---------2-----------0-----------2-----------2-----------x--------0--|
C#|-----0h2-0-------2p0-0-------0h2-0--4-0-2h4--2---4p0-----4-----0--0--|
G#|-0h2-----0---0h2-----x---0h2-----0-----------0-------4p0-2---4----x--|
D#|---------x-----------3-----------x-----------x-----------x--------3--|
                            
D#|---------x-----------x-------x--x---|
A#|---------3-----------3-------3--3---|
F#|---------2-----------2-------0-h2---|
C#|-----0h2-0--4-0-2h4--2---4-0-0--0---|
G#|-0h2-----0-----------0-------x--x---|
D#|---------x-----------x-------3--3---|


[End On]

D#|--2--|
A#|--3--|
F#|--2--| Let Ring
C#|--0--|
G#|-----|
D#|-----|



************************************

| x  Dead note
| h  Hammer-on
| p  Pull-off

************************************
Suggest correction
Give kudos to tab author, rate the tab!
1 2 3 4 5
comments
print report bad tab
guest
You may want to rate the tab now too:
select rating
Wanna post a correction for this tab? Suggest correction