Oops, an error
Loading. Please wait.

Katelyn Chords

13 views 1 this week
no commentswrite comment
1 2 3 4 5
3 more votes to show rating
add to favorites
launch autoscroll
font size
0
reset
transpose
0
reset
simplify chords
display chords
guitar tuner
Autoscroll
slow
fast
+/-
esc
set tempo
stop
Help us to improve Ultimate-Guitar.com Take our survey!
×
Author
Difficulty
Tuning
intermediate
D# G# C# F# A# D#
About this tab version
Remember to hammer on and pull off the 2 on x32033 for the C Chord. 3/4 time signature. KEEP YOUR RING FINGER ANCHORED. Was this info helpful? Yes No
For those who need Lyrics/Chords. For you! Love this song by Rival Summers.
Huge inspiration to me so I want to flood UG with as many of his songs as I know!
Show some love!

[Song Chords]
G:   3x0033
C:   x32033
D:   x00323
Em:  x20033
D/F#:2x0233
A:   x02033
G/B: x2x033

[Intro]
D#|--------------------------------------------------------------0h2-------2h3--|
A#|---------3-----------------------------------3-------------------3---------3-|
F#|-------0---4-2p0---0-----2-------4---------0---4-2p0---0--2~2---------2------|
C#|---0h2-----------4-----0---0---0---0---0h2-----------4----0~-----------------|
G#|-3-----------------------------------3---------------------------------------|
D#|---------------------2-------3--------------------------------------0~-------|

D#|-------------------------------------2h3-----2-------------------------------|
A#|---------3-----------------------------3-----3----------3--------------------|
F#|-------0---4-2p0---0-----2-------4-----0---0h2--------0---2p0----------------|
C#|---0h2-----------4-----0---0---0---0---x-----0----0h2------------------------|
G#|-3-------------------------------------2-----0-------------------------------|
D#|---------------------2-------3---------0-----x-------------------------------|

[Verse]
        C                          D
There's no place that I'd rather be
     Em          C                             D
Than here on the moon with you right next to me
Em           C
Watching the world spin around us
       D             Em
You're wrapped in my arms
        C                      D      Em
This is all turning out perfectly
    C                    D            Em         C       D
I'm sorry I don't have a golf cart to bring you around
      Em             C
but I hope that this song that I wrote for you
D                  Em             C      D      Em      C
cheers you up when you're feeling down

D#|----------------------|
A#|-------3-----3~-------|
F#|-----0---2p0-2~-------|
C#|-0h2---------0~-------|
G#|----------------------|
D#|----------------------|

[Chorus]
  G                      D                           C        Em    D/F#
I know I can beat you at thumb wars but I'll let you win
          G                           D                       C        Em     D/F#
I'll even let you put your thumb over mine when we're holding hands
    C                     D                         Em
I'm so predictable when I ask you to guess what I'm thinking
            A       G/B C
Because I'm thinking of you
           D
You're the best that I've ever had

[Interlude]

[Verse]
        C                       D
There's nothing that I'd rather do
     Em          C                         D    
Than walk to the bridge in the rain with you
Em            C                           D           Em
Laying on the street as the traffic comes racing down Mound
         C                             D   Em
That was not the smartest thing to do
    C                    D            Em        C       D
I'm sorry I don't have a golf cart to bring you around
    Em         C            
But Katelyn, I promise when I'm famous
     D               Em          C     D     Em      C
I'll take you out of this boring town

[Riff]
D#|----------------------|
A#|-------3-----3~-------|
F#|-----0---2p0-2~-------|
C#|-0h2---------0~-------|
G#|----------------------|
D#|----------------------|

[Chorus]
  G                      D                           C        Em    D/F#
I know I can beat you at thumb wars but I'll let you win
          G                           D                       C        Em     D/F#
I'll even let you put your thumb over mine when we're holding hands
    C                     D                         Em
I'm so predictable when I ask you to guess what I'm thinking
            A       G/B C
Because I'm thinking of you
           D
You're the best that I've ever had

[Bridge]
     C            D       
It's 4:23 and I'm tired and hungry
  Em                          A                G/B
I really want to sleep but my body won't let me
C                           D
This song took a lot out of me
N.C.
So you better like it

[Chorus]
  G                      D                           C        Em    D/F#
I know I can beat you at thumb wars but I'll let you win
          G                           D                       C        Em     D/F#
I'll even let you put your thumb over mine when we're holding hands
    C                     D                         Em
I'm so predictable when I ask you to guess what I'm thinking
            A       G/B C
Because I'm thinking of you
           D
You're the best that I've ever had

[Outro]
D#|-------------------------------------------------------------0h2------2h3----|
A#|---------3---------------------------------3---------------------3---------3-|
F#|-------0---4-2p0-0-----2-------4---------0---4-2p0--0---2~-2--------2--------|
C#|---0h2----------4----0---0---0---0---0h2----------4-----0~-------------------|
G#|-3---------------------------------3-----------------------------------------|
D#|-------------------2-------3--------------------------------------0~---------|

D#|2h3-0h2-----------------3-----------------------------------3~---------------|
A#|--3---3---------3-------3---------3-----3--3---------3------3~---------------|
F#|--0-0h2-------0---2p0---0-------0---2p0-2----2-----0---2p0--0~---------------|
C#|--x---0---0h2---------0h2---0h2---------0------0h2----------0~---------------|
G#|--2---0-----------------3-----------------------------------x~---------------|
D#|--0---x-----------------------------------------------------3~---------------|

************************************

| x  Dead note
| h  Hammer-on
| p  Pull-off
| ~  Vibrato 

************************************
Suggest correction
Give kudos to tab author, rate the tab!
1 2 3 4 5
comments
print report bad tab
guest
You may want to rate the tab now too:
select rating
Wanna post a correction for this tab? Suggest correction