Oops, an error
Loading. Please wait.

Katelyn Tab

4 views 1 this week
no commentswrite comment
1 2 3 4 5
3 more votes to show rating
add to favorites
launch autoscroll
font size
0
reset
how to read this tab
guitar tuner
Autoscroll
slow
fast
+/-
esc
set tempo
stop
Help us to improve Ultimate-Guitar.com Take our survey!
×
Author
Difficulty
Tuning
intermediate
D# G# C# F# A# D#
About this tab version
DO NOT MOVE YOUR RING FINGER DURING THE ENTIRE INTRO RIFF. Heck, even the entire song. Was this info helpful? Yes No
One of my favorites for Rival Summers. One of the catchiest Riffs, enjoy.
Thanks once again Rival Summers for the inspiration.

Note: DO NOT MOVE YOUR RING FINGER DURING THE ENTIRE INTRO RIFF. Heck, even the entire song.

[Intro]
D#|--------------------------------------------------------------0h2-------2h3--|
A#|---------3-----------------------------------3-------------------3---------3-|
F#|-------0---4-2p0---0-----2-------4---------0---4-2p0---0--2~2---------2------|
C#|---0h2-----------4-----0---0---0---0---0h2-----------4----0~-----------------|
G#|-3-----------------------------------3---------------------------------------|
D#|---------------------2-------3--------------------------------------0~-------|

D#|-------------------------------------2h3-----2-------------------------------|
A#|---------3-----------------------------3-----3----------3--------------------|
F#|-------0---4-2p0---0-----2-------4-----0---0h2--------0---2p0----------------|
C#|---0h2-----------4-----0---0---0---0---x-----0----0h2------------------------|
G#|-3-------------------------------------2-----0-------------------------------|
D#|---------------------2-------3---------0-----x-------------------------------|

[Verse]
There's no place that I'd rather be..
D#|--3-3--0h2---3--------------3---3-0h2---3------------------------------------|
A#|--3-3----3---3--------------3---3---3---3------------------------------------|
F#|--0-0--0h2---0--------------0---0-0h2---0------------------------------------|
C#|0h2-2----0---x---x1-------0h2---0---0---x---x7-------------------------------|
G#|--3-3----0---2--------------3---3---0---2------------------------------------|
D#|--x-x----x---0--------------x---x---x---0------------------------------------|

Last measure before the Chorus
D#|---3---3---------------------------------------------------------------------|
A#|---3---3-----------3-----3~--------------------------------------------------|
F#|---0---0---------0---2p0-2~--------------------------------------------------|
C#|-0h2---2p0---0h2---------0~--------------------------------------------------|
G#|---3---3---------------------------------------------------------------------|
D#|---x---x---------------------------------------------------------------------|

[Chorus]
I Know I can beat you in thumb wars but I'll let you win...
D#|-3--3---3---3---3-3----------------------------------------------------------|
A#|-3--2---3---3---3-3----------------------------------------------------------|
F#|-0--3---0---0---0-2----------------------------------------------------------|
C#|-0--0-0h2---2p0-x-0--x2------------------------------------------------------|
G#|-x--x---3---3---2-x----------------------------------------------------------|
D#|-3--x---x---x---0-2----------------------------------------------------------|

You're so predictable, when I ask you to guess what I'm thinking..
D#|--3-3----3--3---3-3---3--3----3~---------------------------------------------|
A#|--3-3----2--3---3-3---3--3----2~-----------------------------~---------------|
F#|--0-0----3--0---0-0---0--0----3~--~------------------------------------------|
C#|0h2-2p0--0--x---2-0-0h2--2p0--0~---------------------------------------------|
G#|--3-3----x--2---0-2---3--3----x----------------------------------------------|
D#|--x-x----x--0---x-x---x--x----x----------------------------------------------|

[Intro]
D#|--------------------------------------------------------------0h2-------2h3--|
A#|---------3-----------------------------------3-------------------3---------3-|
F#|-------0---4-2p0---0-----2-------4---------0---4-2p0---0--2~2---------2------|
C#|---0h2-----------4-----0---0---0---0---0h2-----------4----0~-----------------|
G#|-3-----------------------------------3---------------------------------------|
D#|---------------------2-------3--------------------------------------0~-------|

D#|-------------------------------------2h3-----2-------------------------------|
A#|---------3-----------------------------3-----3----------3--------------------|
F#|-------0---4-2p0---0-----2-------4-----0---0h2--------0---2p0----------------|
C#|---0h2-----------4-----0---0---0---0---x-----0----0h2------------------------|
G#|-3-------------------------------------2-----0-------------------------------|
D#|---------------------2-------3---------0-----x-------------------------------|

[Verse]
There's no place that I'd rather be..
D#|--3-3--0h2---3--------------3---3-0h2---3------------------------------------|
A#|--3-3----3---3--------------3---3---3---3------------------------------------|
F#|--0-0--0h2---0--------------0---0-0h2---0------------------------------------|
C#|0h2-2----0---x---x1-------0h2---0---0---x---x7-------------------------------|
G#|--3-3----0---2--------------3---3---0---2------------------------------------|
D#|--x-x----x---0--------------x---x---x---0------------------------------------|

Last measure before the Chorus
D#|---3---3---------------------------------------------------------------------|
A#|---3---3-----------3-----3~--------------------------------------------------|
F#|---0---0---------0---2p0-2~--------------------------------------------------|
C#|-0h2---2p0---0h2---------0~--------------------------------------------------|
G#|---3---3---------------------------------------------------------------------|
D#|---x---x---------------------------------------------------------------------|

[Chorus]
I Know I can beat you in thumb wars but I'll let you win...
D#|-3--3---3---3---3-3----------------------------------------------------------|
A#|-3--2---3---3---3-3----------------------------------------------------------|
F#|-0--3---0---0---0-2----------------------------------------------------------|
C#|-0--0-0h2---2p0-x-0--x2------------------------------------------------------|
G#|-x--x---3---3---2-x----------------------------------------------------------|
D#|-3--x---x---x---0-2----------------------------------------------------------|

You're so predictable, when I ask you to guess what I'm thinking..
D#|--3-3----3--3---3-3---3--3----3~---------------------------------------------|
A#|--3-3----2--3---3-3---3--3----2~-----------------------------~---------------|
F#|--0-0----3--0---0-0---0--0----3~--~------------------------------------------|
C#|0h2-2p0--0--x---2-0-0h2--2p0--0~---------------------------------------------|
G#|--3-3----x--2---0-2---3--3----x----------------------------------------------|
D#|--x-x----x--0---x-x---x--x----x----------------------------------------------|

[Bridge]
Well it's 4:23 and I'm tired and hungry...
D#|-3--3--3--3--3---3-3--3~-----------------------------------------------------|
A#|-3--2--3--3--3---3-3--2~-----------------------------------------------------|
F#|-0--3--0--0--0---0-0--3~-----------------------------------------------------|
C#|-2--0--x--2--x-0h2-0--0~-----------------------------------------------------|
G#|-3--x--2--0--2---3-3--x~-----------------------------------------------------|
D#|-x--x--0--x--x---x-x--x~-----------------------------------------------------|

[Chorus]
I Know I can beat you in thumb wars but I'll let you win...
D#|-3--3---3---3---3-3----------------------------------------------------------|
A#|-3--2---3---3---3-3----------------------------------------------------------|
F#|-0--3---0---0---0-2----------------------------------------------------------|
C#|-0--0-0h2---2p0-x-0--x2------------------------------------------------------|
G#|-x--x---3---3---2-x----------------------------------------------------------|
D#|-3--x---x---x---0-2----------------------------------------------------------|

You're so predictable, when I ask you to guess what I'm thinking..
D#|--3-3----3--3---3-3---3--3----3~---------------------------------------------|
A#|--3-3----2--3---3-3---3--3----2~-----------------------------~---------------|
F#|--0-0----3--0---0-0---0--0----3~--~------------------------------------------|
C#|0h2-2p0--0--x---2-0-0h2--2p0--0~---------------------------------------------|
G#|--3-3----x--2---0-2---3--3----x----------------------------------------------|
D#|--x-x----x--0---x-x---x--x----x----------------------------------------------|

[Outro]
D#|-2h3-3p2------------------------------------------------------------0h2-----2h3----|
A#|----3---3--------3---------------------------------3-------------------3--------3--|
F#|---------------0---4-2p0-0-----2-------4---------0---4-2p0--0---2~-2-------2-------|
C#|-----------0h2----------4----0---0---0---0---0h2----------4-----0~-----------------|
G#|---------3---------------------------------3---------------------------------------|
D#|---------------------------2-------3-------------------------------------0~--------|

D#|2h3-0h2-----------------3-----------------------------------3~---------------------|
A#|--3---3---------3-------3---------3-----3--3---------3------3~---------------------|
F#|--0-0h2-------0---2p0---0-------0---2p0-2----2-----0---2p0--0~---------------------|
C#|--x---0---0h2---------0h2---0h2---------0------0h2----------0~---------------------|
G#|--2---0-----------------3-----------------------------------x~---------------------|
D#|--0---x-----------------------------------------------------3~---------------------|

************************************

| h  Hammer-on
| p  Pull-off
| ~  Vibrato
| x  Dead note

************************************
Suggest correction
Give kudos to tab author, rate the tab!
1 2 3 4 5
comments
print report bad tab
guest
You may want to rate the tab now too:
select rating
Wanna post a correction for this tab? Suggest correction