Oops, an error
Loading. Please wait.

Love Is Worth The Wait Chords

13 views 1 this week
no commentswrite comment
1 2 3 4 5
3 more votes to show rating
add to favorites
launch autoscroll
font size
0
reset
transpose
0
reset
display chords
guitar tuner
Autoscroll
slow
fast
+/-
esc
set tempo
stop
Help us to improve Ultimate-Guitar.com Take our survey!
×
Author
Difficulty
Tuning
intermediate
D# G# C# F# A# D#
About this tab version
First chord sheet of this song, hope you enjoy it. The C# chord is optional, it is very subtle in the recording and the voicing of it may be inaccurate. Was this info helpful? Yes No
For those who need lyrics/chords! 
Refer to the Tab that I submitted if you are curious about the specific riffs/octaves he uses during intro!
Cheers to Rival Summers #ReadyWhenYouAre


[Song Chords]

E:   0244xx (or 0224xx, 0x44xx, 02x4xx)
F#:  2x44xx
G#:  4x44xx
B:   x244xx
C#:  x444xx
F#m: 2x43xx


[Intro]

G# B  E  F# (x2)


[Verse 1]

G#  E  B  F#

          G#
Well these lights
     E                   B
They flicker and they die
    F#                 G#
But unlike them your eyes
           E                   B       F#
Will never leave me in the dark
     G#    E                  B
But I have waited all these nights
    F#              G#
And never good I'd find them
       E                   B   F#
I wish I was where you are


[Chorus]

    E       F#                G#
And Hey, if love is worth the wait
     B      C#   E
Then I will wait forever
           F#            G#
And you'll never hear me say
     B          C#        E      F#     G#     
That love ain't worth the wait
      B       C#        E     F#     G#      B   C#
Cause love is worth the wait

E E E E E
Clap Clap, Clap


[Verse 2]

  G#
Today
  E                  B
I sing this song and pray
     F#m                G#        
That you might feel the same
                  E                    B      F#
'Cause that would be the greatest thing
      G#
And I hope
     E                  B
That this song gets somewhere
    F#m                  G#
And makes sure that there
           E               B   
Would be a song for you to sing


[Chorus]

    E       F#                G#
And Hey, if love is worth the wait
     B      C#   E
Then I will wait forever
           F#            G#
And you'll never hear me say
     B          C#        E      F#     G#     
That love ain't worth the wait
      B       C#        E     F#     G#     
Cause love is worth the wait
      B       C#        E     F#     G#
Cause love is worth the wait
      B       C#        E     F#     G#
Cause love is worth the wait
    B     C#
Oh, Yeah


[Interlude]

E  F#  G#   B  C#  (x4)


[Interlude Riff]

D#|---------------------------|----------------------------|
A#|---------------------------|----------------------------|
F#|-----10-8-------------8----|-----10-8-------------------| 
C#|-8-9------10-9-8-9-10---9~-|-8-9------10-9-8---8---8-9~-|
G#|---------------------------|-----------------9---9------|
D#|---------------------------|----------------------------|(x4)


[Bridge]

E
My shirt it smells of you
F#
From months of holding onto you
E
I'm getting sick of you
F#                G#
But my lungs they scream for you
E
My shirt it smells of you
F#
From months of holding onto you
G#
I'm getting sick of you
B                 F#         E
But my lungs they scream for you

[Outro]


Guitar 1

    E          F#         G#          B       F#
D#|---------------------------------------------------------------------------|
A#|---------------------------------------------------------------------------|
F#|-4----------4----------4-----------4-------4-------------------------------|
C#|-2----------4----------4-----------4-------4-------------------------------|
G#|-2----------x----------x-----------2-------x-------------------------------|
D#|-0----------2----------4-----------x-------2-------------------------------|(x2)

Guitar 2

D#|-------------------------------------------------------|
A#|-------------------------------------------------------|
F#|-4-4-4-4-4-4-4-4/8-6-6-6-6-6-6-6-6/9-8-8-8-8-8-8-8-8/11|
C#|-x-x-x-x-x-x-x-x/x-x-x-x-x-x-x-x-x/x-x-x-x-x-x-x-x-x/x-|
G#|-2-2-2-2-2-2-2-2/6-4-4-4-4-4-4-4-4/7-6-6-6-6-6-6-6-6/9-|
D#|-------------------------------------------------------|

D#|------------------------------------------------------|
A#|------------------------------------------------------|
F#|-6-6-6-6-6-6-6-6/8/8-8-8-8-8-8-8----------------------|
C#|-x-x-x-x-x-x-x-x/x/x-x-x-x-x-x-x----------------------|
G#|-4-4-4-4-4-4-4-4/6/6-6-6-6-6-6-6----------------------|
D#|------------------------------------------------------|(x2)

F#                   E let ring
If love is worth the



************************************

| ~  Vibrato
| x  Dead note
| /  Slide up

************************************
Suggest correction
Give kudos to tab author, rate the tab!
1 2 3 4 5
comments
print report bad tab
guest
You may want to rate the tab now too:
select rating
Wanna post a correction for this tab? Suggest correction