Oops, an error
Loading. Please wait.

Love Is Worth The Wait Tab

1 view 1 this week
no commentswrite comment
1 2 3 4 5
3 more votes to show rating
add to favorites
launch autoscroll
font size
0
reset
how to read this tab
guitar tuner
Autoscroll
slow
fast
+/-
esc
set tempo
stop
Help us to improve Ultimate-Guitar.com Take our survey!
×
Author
Difficulty
Tuning
intermediate
D# G# C# F# A# D#
About this tab version
First tab for this song. This tab was done completely by ear, could have minor variance in how the chords are voice. Feel free to help out. Was this info helpful? Yes No
Most baller track on the album. Rival Summers. Check him out.

G#: 4x44xx
B:  x244xx
E:  0224xx (can also be played 0x44xx, 02x4xx, 0244xx)
F#: 2x44xx

[Intro]
Guitar 1
D#|---------------------------------------------------------|
A#|---------------------------------------------------------|
F#|444x444-xxxxx-444x444-xxxxx-444x444-xxxxx-444x444-xxxxx--|
C#|444x444-xxxxx-444x444-xxxxx-222x222-xxxxx-444x444-xxxxx--| x2
G#|xxxxxxx-xxxxx-222x222-xxxxx-222x222-xxxxx-xxxxxxx-xxxxx--|
D#|444x444-xxxxx---------xxxxx-000x000-xxxxx-222x222-xxxxx--|

Guitar 2
D#|---------------------------|-----------------------------|
A#|---------------------------|-----------------------------|
F#|-----10-8-------------8----|-----10-8--------------------| x2
C#|-8-9------10-9-8-9-10---9~-|-8-9------10-9-8---8---8-9~--|
G#|---------------------------|-----------------9---9-------|
D#|---------------------------|-----------------------------|

[Verse]
Guitar 1
D#|------------------------------------------------|
A#|------------------------------------------------|
F#|--4---11-9-8---4---3------4---11-9--8---4---3---|
C#|--4---x--x-x---4---4------4---x--x--x---4---4---| x1
G#|--x---9--7-6---2---x------x---9--7--6---2---x---|
D#|--4---0--0-0---0---2------4---0--0--0---0---2---|
Guitar 1
Well These lights, they flicker and they die...
D#|------------------------------|
A#|------------------------------|
F#|--4--4-4-4--------------------|
C#|--4--2-4-4--------------------| x3
G#|--x--2-2-x--------------------|
D#|--4--0-x-2--------------------|

D#|------------------------------|
A#|------------------------------|
F#|-4--4-4-x---------------------|
C#|-4--2-4-x--kachica-chika------| x1
G#|-x--2-2-x---------------------|
D#|-4--0-x-x---------------------|

[Chorus]
Guitar 1
And Hey, If love is worth the wait...
D#|-----------------------------------------|
A#|-----------------------------------------|
F#|-4-4-4-4-4-------------------------------|
C#|-2-4-4-4-4-------------------------------| x4
G#|-2-x-x-2-4-------------------------------|
D#|-0-2-4-x-x-------------------------------|
Guitar 2
D#|-----------------------------------------|
A#|-4-4-4-4-2-2-5-5-------------------------|
F#|--4-4-4-4-4-4-4-4------------------------|
C#|-----------------------------------------| x4
G#|-----------------------------------------|
D#|-----------------------------------------|

[Chorus ending]
D#|-----------------------------------------|
A#|-----------------------------------------|
F#|-4-4-4-4-4-------------------------------|
C#|-x-x-x-x-x-------------------------------| x1
G#|-2-2-2-2-2-------------------------------|
D#|-0-0-0-0-0-------------------------------|

D#|-----------------------------------------|
A#|-4-4-4-4-4~------------------------------|
F#|--4-4-4-4--------------------------------| x1
C#|-----------------------------------------|
G#|-----------------------------------------|
D#|-----------------------------------------|

[Verse]
Guitar 1
Today, I sing this song and pray...
D#|-----------------------------------------|
A#|-----------------------------------------|
F#|--4---11-9-8---4---3------4-4-4-4--------|
C#|--4---x--x-x---4---4------4-2-4-4--------| x1
G#|--x---9--7-6---2---x------x-2-2-x--------|
D#|--4---0--0-0---0---2------4-0-x 2--------|
And I Hope that this song gets somewhere...
D#|-----------------------------------------|
A#|-----------------------------------------|
F#|--4---11-9-8---4---3------4-4-4-xxx-xxx--|
C#|--4---x--x-x---4---4------4-2-4-xxx-xxx--| x1
G#|--x---9--7-6---2---x------x-2-2-xxx-xxx--|
D#|--4---0--0-0---0---2------4-0-x-xxx-xxx--|

[Chorus]
Guitar 1
And Hey, If love is worth the wait...
D#|-----------------------------------------|
A#|-----------------------------------------|
F#|-4-4-4-4-4-------------------------------|
C#|-2-4-4-4-4-------------------------------| x2
G#|-2-x-x-2-4-------------------------------|
D#|-0-2-4-x-x-------------------------------|

Guitar 2
D#|-----------------------------------------|
A#|-4-4-4-4-2-2-5-5-------------------------|
F#|--4-4-4-4-4-4-4-4------------------------|
C#|-----------------------------------------| x2
G#|-----------------------------------------|
D#|-----------------------------------------|

Guitar 1
You'll never hear me say that love ain't worth the waaaaaaaaaaaait...
D#|-----------------------------------------|
A#|-----------------------------------------|
F#|-4-4-4-4-4-------------------------------|
C#|-2-4-4-4-4-------------------------------| x4
G#|-2-x-x-2-4-------------------------------|
D#|-0-2-4-x-x-------------------------------|

Guitar 2
D#|-----------------------------------------|
A#|-4-4-4-4-2-2-5-5-------------------------|
F#|--4-4-4-4-4-4-4-4------------------------|
C#|-----------------------------------------| x4
G#|-----------------------------------------|
D#|-----------------------------------------|

[Interlude]
Oh Yeaaaaaa...
Guitar 1
D#|--------------------------------------------------------|
A#|--------------------------------------------------------|
F#|-4---------4--------------4-----------4-----------4-----|
C#|-2---------4--------------4-----------4-----------4-----| x4
G#|-2---------x--------------x-----------2-----------4-----|
D#|-0---------2--------------4-----------x-----------x-----|

Guitar 2
D#|---------------------------|----------------------------|
A#|---------------------------|----------------------------|
F#|-----10-8-------------8----|-----10-8-------------------| x4
C#|-8-9------10-9-8-9-10---9~-|-8-9------10-9-8---8---8-9~-|
G#|---------------------------|-----------------9---9------|
D#|---------------------------|----------------------------|

[Bridge]
Guitar 1
My shirt it smells of you...
D#|-----------------------------------------------------------------------------------|
A#|-----------------------------------------------------------------------------------|
F#|-4---4---4---4---4---4---4---4---4---4---------------------------------------------|
C#|-2---4---2---4---4---2---4---4---4---4---------------------------------------------| x1
G#|-2---x---2---x---x---2---x---x---2---x---------------------------------------------|
D#|-0---2---0---2---4---0---2---4---x---2---------------------------------------------|

Guitar 2
D#|--------------------|--------------------|--------------------|--------------------|
A#|--------------------|--------------------|--------------------|--------------------|
F#|-------8-9-8--------|-------8-9-8--------|-------8-9-8--------|--10-8------8-------|
C#|8-9-10-------10-9-8-|8-9-10-------10-9-8-|8-9-10-------10-9-8-|8------9-10---10-9--| x2
G#|--------------------|--------------------|--------------------|--------------------|  
D#|--------------------|--------------------|--------------------|--------------------|  

[Outro]
Guitar 1
D#|---------------------------------------------------------------------------|
A#|---------------------------------------------------------------------------|
F#|-4----------4----------4-----------4-------4-------------------------------|
C#|-2----------4----------4-----------4-------4-------------------------------| x2
G#|-2----------x----------x-----------2-------x-------------------------------|
D#|-0----------2----------4-----------x-------2-------------------------------|

Guitar 2
D#|---------------------------------------------------------------------------|
A#|---------------------------------------------------------------------------|
F#|-44444444/8-66666666/9-88888888/11-66666666/8/8888888----------------------|
C#|-xxxxxxxx/x-xxxxxxxx/x-xxxxxxxx/x--xxxxxxxx/x/xxxxxxx----------------------| x2
G#|-22222222/6-44444444/7-66666666/9--44444444/6/6666666----------------------|
D#|---------------------------------------------------------------------------|

[Ending]
D#|---|
A#|---|
F#|-4-|
C#|-4-|
G#|-2-|
D#|-0-|

 
************************************

| x  Dead note
| ~  Vibrato
| /  Slide up 

************************************
Suggest correction
Give kudos to tab author, rate the tab!
1 2 3 4 5
comments
print report bad tab
guest
You may want to rate the tab now too:
select rating
Wanna post a correction for this tab? Suggest correction