Oops, an error
Loading. Please wait.

Two Weeks Into Summer Chords

19 views 1 this week
no commentswrite comment
1 2 3 4 5
3 more votes to show rating
add to favorites
launch autoscroll
font size
0
reset
transpose
0
reset
simplify chords
display chords
guitar tuner
Autoscroll
slow
fast
+/-
esc
set tempo
stop
Help us to improve Ultimate-Guitar.com Take our survey!
×
Author
Capo
1st fret
About this tab version
Capo 1. You can complete the riff by barring the DGb strings with your index finger. The whole song has a slight swing when changing chords, listening to the song to get the feel. Was this info helpful? Yes No
Really good song by Rival Summers, wanted to share the love of his music by making this tab. 
Thanks for the inspiration, Rival Summers!

[Song Chords] (relative to capo 1)
G:    3x043x
A:    5x065x
B:    7x077x
D/F#: 2x023x During intro, you can play it like 2x02xx

[Riff Interlude/Intro/Outro]
e|-----------------------------------------------------------------------------------------------------------|
B|----7h8p7--------------10~-----7~-----7h8p7--------------10-7h8p7-5-7----7-7-7-7-5-5-8-8-7-7-7-7-5-5-8-8-7~|
G|7h9-------9-7---7----7-------7----7h9-------9-7---7----7-------------7--7-7-7-7-7-7-7-7-7-7-7-7-7-7-7-7----|
D|--------------7----9-------7--------------------7----9-----------------------------------------------------|
A|-----------------------------------------------------------------------------------------------------------|
E|-----------------------------------------------------------------------------------------------------------|

[Intro Chords]
G A G B A x 3
G A G B A-D/F#-G

[Verse Chords]
G A x 8

[Chorus Chords]
B G D A
B G A
G A G A
G B A

[Interlude Chords]
G A G B A
G A G B A-D/F#-G

[Verse]
D/F#      G                             A              G         A
Well it's two weeks into summer and I'm here all alone again
           G                       A      G     A
No one has called all day and it's 3:17 A M
     G                     A                 G       A
Everyday's the same I sit around and play guitar
   G                        A               G   slide up to A
Wasting summer away wishing I was where you are

[Chorus]
B                        G                  D/F#         A
Do you remember what you wore when we first met? Because I do
B                      G                  A
Do you remember when I sang that song for you?
    G                           A
The truth is I've been thinking about you a lot
        G                       A
So many things I remember, some things I forgot
     G                      B                A
I forgot what that song was called or how it went
A
But that month and a half was well spent

[Interlude]

[Verse]
D/F#      G                             A                     G          A
Well it's two weeks into summer and I'm still really bored as hell
             G                        A                  G          A
I'm thinking that it's a Saturday but I really can't tell
     G                      A                   G          A
Everyday's the same I sleep in 'til half passed four
          G                   A                 G         A
I haven't seen you in so long I can't take this anymore

[Chorus]
B                        G                  D/F#         A
Do you remember what you wore when we first met? Because I do
B                      G                  A
Do you remember when I sang that song for you?
    G                           A
The truth is I've been thinking about you a lot
        G                       A
So many things I remember, some things I forgot
     G                      B                A
I forgot what that song was called or how it went
A
But that month and a half was well spent

[Bridge]
G           A
Well, Well, look what we have here
G                            A
It ain't no mystery that I'm thinking about what happened last year
G           A
Well, Well, look what we have here
G                                   A
Back then it made no sense But it's all become so clear

[Chorus]
B                        G                  D/F#         A
Do you remember what you wore when we first met? Because I do
B                      G                  A
Do you remember when I sang that song for you?
    G                           A
The truth is I've been thinking about you a lot
        G                       A
So many things I remember, some things I forgot
     G                      B                A
I forgot what that song was called or how it went
A
But that month and a half was well spent

[Outro]
G A G B A
G A G B A-D/F#-G

 [Riff]
e|-----------------------------------------------------------------------------------------------------------|
B|----7h8p7--------------10~-----7~-----7h8p7--------------10-7h8p7-5-7----7-7-7-7-5-5-8-8-7-7-7-7-5-5-8-8-7~|
G|7h9-------9-7---7----7-------7----7h9-------9-7---7----7-------------7--7-7-7-7-7-7-7-7-7-7-7-7-7-7-7-7--7~|
D|--------------7----9-------7--------------------7----9-----------------------------------------------------|
A|-----------------------------------------------------------------------------------------------------------|
E|-----------------------------------------------------------------------------------------------------------|

************************************

| h  Hammer-on
| p  Pull-off
| ~  Vibrato

************************************
Suggest correction
Give kudos to tab author, rate the tab!
1 2 3 4 5
comments
print report bad tab
guest
You may want to rate the tab now too:
select rating
Wanna post a correction for this tab? Suggest correction