Oops, an error
Loading. Please wait.

Abuse Bass Tab

1 view 1 this week
no commentswrite comment
1 2 3 4 5
3 more votes to show rating
add to favorites
launch autoscroll
font size
0
reset
guitar tuner
Autoscroll
slow
fast
+/-
esc
set tempo
stop
Help us to improve Ultimate-Guitar.com Take our survey!
×
Author
Difficulty
[Intro]                                                ("Let's Go!")
G|------------------------|------------------------|------------------------|------------------------|
D|------------------------|------------------------|------------------------|------------------------|
A|------------------------|------------------------|------------------------|------------------------|
E|------------------------|------------------------|-7---7-7---7-7--5-5-7-5-|-7---7-7---7-7--5-5-7-5-|

[Verse]
G|------------------------|------------------------|------------------------|------------------------|
D|------------------------|------------------------|------------------------|------------------------|
A|------------------------|------------------------|------------------------|------------------------|
E|-7---7-7---7-7--5-5-7-5-|-7---7-7---7-7--5-5-7-5-|-7---7-7---7-7--5-5-7-5-|-7---7-7---7-7--5-5-7-5-|

[Chorus] ("Abuse, Abuse, Abuse, Abuse, Abuse From You...")
G|--------------------------------|---------------------|--------------------------------|
D|--------------------------------|---------------------|--------------------------------|
A|-7-7-7-------8-8-8--5-5-5-5-5-5-|---------------------|-7-7-7-------8-8-8--5-5-5-5-5-5-|
E|-------7-7-7--------------------|-7---7-7---7-7---7-7-|-------7-7-7--------------------|

G|------------------------|------------------------|
D|------------------------|------------------------|
A|------------------------|------------------------|
E|-7---7-7---7-7--5-5-7-5-|-7---7-7---7-7--5-5-7-5-|

[Verse]
G|------------------------|------------------------|------------------------|------------------------|
D|------------------------|------------------------|------------------------|------------------------|
A|------------------------|------------------------|------------------------|------------------------|
E|-7---7-7---7-7--5-5-7-5-|-7---7-7---7-7--5-5-7-5-|-7---7-7---7-7--5-5-7-5-|-7---7-7---7-7--5-5-7-5-|

[Chorus] ("Abuse, Abuse, Abuse, Abuse, Abuse From You...")
G|--------------------------------|---------------------|--------------------------------|
D|--------------------------------|---------------------|--------------------------------|
A|-7-7-7-------8-8-8--5-5-5-5-5-5-|---------------------|-7-7-7-------8-8-8--5-5-5-5-5-5-|
E|-------7-7-7--------------------|-7---7-7---7-7---7-7-|-------7-7-7--------------------|

G|------------------------|
D|------------------------|
A|------------------------|
E|-7---7-7---7-7--5-5-7-5-|

[Solo]
G|--------------------------------|--------------------------------|
D|-----------5-5------------------|-----------5-5------------------|
A|-7-7-----------3-3-3-3--5-5-5-5-|-7-7-----------3-3-3-3--5-5-5-5-|
E|--------------------------------|--------------------------------|

G|--------------------------------|--------------------------------|
D|-----------5-5------------------|-----------5-5------------------|
A|-7-7-----------3-3-3-3--5-5-5-5-|-7-7-----------3-3-3-3--5-5-5-5-|
E|--------------------------------|--------------------------------|

[Verse]
G|------------------------|------------------------|------------------------|------------------------|
D|------------------------|------------------------|------------------------|------------------------|
A|------------------------|------------------------|------------------------|------------------------|
E|-7---7-7---7-7--5-5-7-5-|-7---7-7---7-7--5-5-7-5-|-7---7-7---7-7--5-5-7-5-|-7---7-7---7-7--5-5-7-5-|

[Chorus] ("Abuse, Abuse, Abuse...")
G|--------------------------------|---------------------|
D|--------------------------------|---------------------|
A|-7-7-7-------8-8-8--5-5-5-5-5-5-|---------------------|
E|-------7-7-7--------------------|-7---7-7---7-7---7-7-|

G|--------------------------------|---------------------|
D|--------------------------------|---------------------|
A|-7-7-7-------8-8-8--5-5-5-5-5-5-|---------------------|
E|-------7-7-7--------------------|-7---7-7---7-7---7-7-|

G|-9-9-9-------10-10-10--7-7-7--9-7----|---------------------|
D|-------9-9-9---------------------9-7-|---------------------|
A|-------------------------------------|---------------------|
E|-------------------------------------|-7---7-7---7-7---7-7-|

G|--------------------------------|---------------|
D|--------------------------------|---------------|
A|-7-7-7-------8-8-8--5-5-5-5-5-5-|---------------|
E|-------7-7-7--------------------|-7-7-----------|
Suggest correction
Give kudos to tab author, rate the tab!
1 2 3 4 5
comments
print report bad tab
guest
You may want to rate the tab now too:
select rating
Wanna post a correction for this tab? Suggest correction