Oops, an error
Loading. Please wait.

Asshole Bass Tab

4 views 3 this week
no commentswrite comment
1 2 3 4 5
3 more votes to show rating
add to favorites
launch autoscroll
font size
0
reset
guitar tuner
Autoscroll
slow
fast
+/-
esc
set tempo
stop
Help us to improve Ultimate-Guitar.com Take our survey!
×
Author
Difficulty
[Intro] 
G|-------------------------------------------------------------------------------------------|
D|-------------------------------------------------------------------------------------------|
A|-------------------------------------------------------------------------------------------|
E|------------------------0-3--0----0-3-0-3-0-3-0-3-0-3-0----0-3--0----0-3-0-3-0-3-0-3-0-3-0-|

G|---------------------------------|------------------------------|
D|---------------------------------|------------------------------|
A|---------------------------------|---3-5----3-5----3-5----3--5--|
E|-0-3--0----0-3-0-3-0-3-0-3-0-3-0-|-5------5------5------5-------|

[Verse]
G|----------------------------|----------------------------|----------------------------|
D|----------------------------|----------------------------|----------------------------|
A|---3-5----3-5----3-5----3-5-|---3-5----3-5----3-5---3-5--|---3-5----3-5----3-5---3-5--|
E|-5------5------5------5-----|-5------5------5-----5------|-5------5------5------5-----|

G|----------------------------|
D|----------------------------|
A|---3-5----3-5----3-5----3-5-|
E|-5------5------5------5-----|

[Chorus]   ("You're An Asshole...")                          
G|---------------------------------|---------------------------------|
D|---------------------------------|---------------------------------|
A|---------5-5-5-5-----------------|---------5-5-5-5-----------------|
E|-3-3-3-3---------5-5-5-5-5-5-5-5-|-3-3-3-3---------5-5-5-5-5-5-5-5-|

G|---------------------------------|-------------------------------------------------|
D|---------------------------------|-------------------------------------------------|
A|---------5-5-5-5-----------------|---------5-5-5-5---------------------------------|
E|-3-3-3-3---------5-5-5-5-5-5-5-5-|-3-3-3-3---------7-7-7-7-7-7-7-7-7-7-7-7-7-7-7-7-|

[Verse]
G|----------------------------|----------------------------|----------------------------|
D|----------------------------|----------------------------|----------------------------|
A|---3-5----3-5----3-5----3-5-|---3-5----3-5----3-5---3-5--|---3-5----3-5----3-5---3-5--|
E|-5------5------5------5-----|-5------5------5-----5------|-5------5------5------5-----|

G|----------------------------|
D|----------------------------|
A|---3-5----3-5----3-5----3-5-|
E|-5------5------5------5-----|


[Chorus]   ("You're An Asshole...")                            
G|---------------------------------|---------------------------------|
D|---------------------------------|---------------------------------|
A|---------5-5-5-5-----------------|---------5-5-5-5-----------------|
E|-3-3-3-3---------5-5-5-5-5-5-5-5-|-3-3-3-3---------5-5-5-5-5-5-5-5-|

G|---------------------------------|-------------------------------------------------|
D|---------------------------------|-------------------------------------------------|
A|---------5-5-5-5-----------------|---------5-5-5-5---------------------------------|
E|-3-3-3-3---------5-5-5-5-5-5-5-5-|-3-3-3-3---------7-7-7-7-7-7-7-7-7-7-7-7-7-7-7-7-|

[Solo]
G|----------------------------|----------------------------|----------------------------|
D|----------------------------|----------------------------|----------------------------|
A|---3-5----3-5----3-5----3-5-|---3-5----3-5----3-5---3-5--|---3-5----3-5----3-5---3-5--|
E|-5------5------5------5-----|-5------5------5-----5------|-5------5------5------5-----|

G|----------------------------|
D|----------------------------|
A|---3-5----3-5----3-5----3-5-|
E|-5------5------5------5-----|

[Chorus]   ("You're An Asshole...")                        
G|---------------------------------|---------------------------------|
D|---------------------------------|---------------------------------|
A|---------5-5-5-5-----------------|---------5-5-5-5-----------------|
E|-3-3-3-3---------5-5-5-5-5-5-5-5-|-3-3-3-3---------5-5-5-5-5-5-5-5-|

G|---------------------------------|-------------------------------------------------|
D|---------------------------------|-------------------------------------------------|
A|---------5-5-5-5-----------------|---------5-5-5-5---------------------------------|
E|-3-3-3-3---------5-5-5-5-5-5-5-5-|-3-3-3-3---------7-7-7-7-7-7-7-7-7-7-7-7-7-7-7-7-|

[Outro]
G|----------------------------|
D|----------------------------|
A|---3-5----3-5----3-5--------|
E|-5------5------5------5-----|
Suggest correction
Give kudos to tab author, rate the tab!
1 2 3 4 5
comments
print report bad tab
guest
You may want to rate the tab now too:
select rating
Wanna post a correction for this tab? Suggest correction