Oops, an error
Loading. Please wait.

Fake Id Bass Tab

19 views 3 this week
no commentswrite comment
1 2 3 4 5
2 more votes to show rating
add to favorites
launch autoscroll
font size
0
reset
guitar tuner
×
Best way to learn
"Fake Id"
Autoscroll
slow
fast
+/-
esc
set tempo
stop
Author
Difficulty
Verse
G|----------------------|----------------------|----------------------|----------------------|
D|----------------------|----------------------|----------------------|----------------------|
A|-1----------1---------|-1----------1---------|-1----------1---------|-1----------1---------|
E|---3-3-3-3----3-3-3-3-|---3-3-3-3----3-3-3-3-|---3-3-3-3----3-3-3-3-|---3-3-3-3----3-3-3-3-|


Chorus ("I Love A Girl With A Fake I.D....")
G|----------------------------------|----------------------------------|
D|----------------------------------|----------------------------------|
A|-3---3---3----1---------1---------|-3---3---3----1---------1---------|
E|---3---3---3----3-3-3-3---3-3-3-3-|---3---3---3----3-3-3-3---3-3-3-3-|


Verse
G|----------------------|----------------------|----------------------|----------------------|
D|----------------------|----------------------|----------------------|----------------------|
A|-1----------1---------|-1----------1---------|-1----------1---------|-1----------1---------|
E|---3-3-3-3----3-3-3-3-|---3-3-3-3----3-3-3-3-|---3-3-3-3----3-3-3-3-|---3-3-3-3----3-3-3-3-|


Chorus ("I Love A Girl With A Fake I.D....")
G|----------------------------------|----------------------------------|
D|----------------------------------|----------------------------------|
A|-3---3---3----1---------1---------|-3---3---3----1---------1---------|
E|---3---3---3----3-3-3-3---3-3-3-3-|---3---3---3----3-3-3-3---3-3-3-3-|


Solo
G|----------------------|----------------------|----------------------|----------------------|
D|----------------------|----------------------|----------------------|----------------------|
A|-1----------1---------|-1----------1---------|-1----------1---------|-1----------1---------|
E|---3-3-3-3----3-3-3-3-|---3-3-3-3----3-3-3-3-|---3-3-3-3----3-3-3-3-|---3-3-3-3----3-3-3-3-|


Chorus ("Love A Girl With A Fake I.D....")
G|----------------------------------|----------------------------------|
D|----------------------------------|----------------------------------|
A|-3---3---3----1---------1---------|-3---3---3----1---------1---------|
E|---3---3---3----3-3-3-3---3-3-3-3-|---3---3---3----3-3-3-3---3-3-3-3-|

G|----------------------------------|------------------------|
D|----------------------------------|------------------------|
A|-3---3---3----1---------1---------|-3---3---3----1---------|
E|---3---3---3----3-3-3-3---3-3-3-3-|---3---3---3----3-3-3-3-|


Bridge/Solo                                          x4
G|-----------------------------------------------------|
D|------------------------------------5-5-5------3-3-3-|
A|-5--5-5-5--5-5-5--5-5-5--5-5--3-3-3-------2-2-2------|
E|-----------------------------------------------------|

G|-----------------------------------------------------|----------------------|----------------------|
D|------------------------------------5----------3-----|----------------------|----------------------|
A|-5--5-5-5--5-5-5--5-5-5--5-5--3-----------2----------|-1----------1---------|-1----------1---------|
E|-----------------------------------------------------|---3-3-3-3----3-3-3-3-|---3-3-3-3----3-3-3-3-|


Verse
G|----------------------|----------------------|----------------------|----------------------|
D|----------------------|----------------------|----------------------|----------------------|
A|-1----------1---------|-1----------1---------|-1----------1---------|-1----------1---------|
E|---3-3-3-3----3-3-3-3-|---3-3-3-3----3-3-3-3-|---3-3-3-3----3-3-3-3-|---3-3-3-3----3-3-3-3-|

Chorus ("Love A Girl With A Fake I.D....")
G|----------------------------------|----------------------------------|
D|----------------------------------|----------------------------------|
A|-3---3---3----1---------1---------|-3---3---3----1---------1---------|
E|---3---3---3----3-3-3-3---3-3-3-3-|---3---3---3----3-3-3-3---3-3-3-3-|

G|----------------------------------|------------------------------|
D|----------------------------------|------------------------------|
A|-3---3---3----1---------1---------|-3---3---3----1---------1-----|
E|---3---3---3----3-3-3-3---3-3-3-3-|---3---3---3----3-3-3-3---3---|
Suggest correction
Give kudos to tab author, rate the tab!
1 2 3 4 5
comments
print report bad tab
guest
You may want to rate the tab now too:
select rating
Wanna post a correction for this tab? Suggest correction