Oops, an error
Loading. Please wait.

Fucked Again Bass Tab

10 views 1 this week
no commentswrite comment
1 2 3 4 5
3 more votes to show rating
add to favorites
launch autoscroll
font size
0
reset
guitar tuner
Autoscroll
slow
fast
+/-
esc
set tempo
stop
Help us to improve Ultimate-Guitar.com Take our survey!
×
Author
Difficulty
Intro
G|------------------|------------------|------------------|------------------|
D|------------------|------------------|------------------|------------------|
A|-0-0-0-0--3-0---0-|-0-0-0-0--3-0---0-|-0-0-0-0--3-0---0-|-0-0-0-0--3-0---0-|
E|--------------3---|--------------3---|--------------3---|--------------3---|

G|------------------|------------------|------------------|------------------|
D|------------------|------------------|------------------|------------------|
A|-0-0-0-0--3-0---0-|-0-0-0-0--3-0---0-|-0-0-0-0--3-0---0-|-0-0-0-0--3-0---0-|
E|--------------3---|--------------3---|--------------3---|--------------3---|


Verse 
G|-------------------------------------------------------|
D|-------------------------------------------------------|
A|-0-0-0--6-6-6--0-0-0--3-3-3--0-0-0--6-6-6--5-5-5-5---6-|
E|-------------------------------------------------------|

G|-------------------------------------------------------|
D|-------------------------------------------------------|
A|-0-0-0--6-6-6--0-0-0--3-3-3--0-0-0--6-6-6--5-5-5-5---6-|
E|-------------------------------------------------------|


Chorus ("Fucked, I Fucked Up Again...")
G|---2-0--------5-3--------------------------------|---2-0--------5-3--------------------------------|
D|-------2-0--------5-3----5-3---------------------|-------2-0--------5-3----5-3---------------------|
A|-0----------3----------------5--3--5-5-5-3/5-5-5-|-0----------3----------------5--3--5-5-5-3/5-5-5-|
E|-----------------------3-------------------------|-----------------------3-------------------------|


Verse 
G|-------------------------------------------------------|
D|-------------------------------------------------------|
A|-0-0-0--6-6-6--0-0-0--3-3-3--0-0-0--6-6-6--5-5-5-5---6-|
E|-------------------------------------------------------|

G|-------------------------------------------------------|
D|-------------------------------------------------------|
A|-0-0-0--6-6-6--0-0-0--3-3-3--0-0-0--6-6-6--5-5-5-5---6-|
E|-------------------------------------------------------|


Chorus ("Fucked, I Fucked Up Again...")
G|---2-0--------5-3--------------------------------|---2-0--------5-3--------------------------------|
D|-------2-0--------5-3----5-3---------------------|-------2-0--------5-3----5-3---------------------|
A|-0----------3----------------5--3--5-5-5-3/5-5-5-|-0----------3----------------5--3--5-5-5-3/5-5-5-|
E|-----------------------3-------------------------|-----------------------3-------------------------|


Solo
G|------------------|------------------|------------------|------------------|
D|------------------|------------------|------------------|------------------|
A|-0-0-0-0--3-0---0-|-0-0-0-0--3-0---0-|-0-0-0-0--3-0---0-|-0-0-0-0--3-0---0-|
E|--------------3---|--------------3---|--------------3---|--------------3---|

G|------------------|------------------|------------------|------------------|
D|------------------|------------------|------------------|------------------|
A|-0-0-0-0--3-0---0-|-0-0-0-0--3-0---0-|-0-0-0-0--3-0---0-|-0-0-0-0--3-0---0-|
E|--------------3---|--------------3---|--------------3---|--------------3---|


Verse 
G|-------------------------------------------------------|
D|-------------------------------------------------------|
A|-0-0-0--6-6-6--0-0-0--3-3-3--0-0-0--6-6-6--5-5-5-5---6-|
E|-------------------------------------------------------|

G|-------------------------------------------------------|--------|
D|-------------------------------------------------------|--------|
A|-0-0-0--6-6-6--0-0-0--3-3-3--0-0-0--6-6-6--5-5-5-5---6-|-0------|
E|-------------------------------------------------------|--------|


That's the whole song, in order too. This is the "Feelin' Groovy" or "Full On Hate Fuck" version. 
The one that clocks in at 1:49. Of Course Nick Oliveri on the bass.
Suggest correction
Give kudos to tab author, rate the tab!
1 2 3 4 5
comments
print report bad tab
guest
You may want to rate the tab now too:
select rating
Wanna post a correction for this tab? Suggest correction