Oops, an error
Loading. Please wait.

Gimme Gimme Bass Tab

7 views 3 this week
no commentswrite comment
1 2 3 4 5
3 more votes to show rating
add to favorites
launch autoscroll
font size
0
reset
guitar tuner
Autoscroll
slow
fast
+/-
esc
set tempo
stop
Help us to improve Ultimate-Guitar.com Take our survey!
×
[Intro]
G|----------------|----------------|-------------------------------------|
D|----------------|----------------|-------------------------------------|
A|-0-2-3------2-2-|-0-2-3------2-2-|-------------------------------------|
E|----------------|----------------|-7-----------------7-----------------|

G|---------------------------------|---------------------------------|
D|---------------------------------|---------------------------------|
A|------------5--------------------|------------5--------------------|
E|-7-7-7-7--5---5--7-7-7-7-7-7-7-7-|-7-7-7-7--5---5--3-3-3-3-3-3-3-3-|

[Verse] ("Gimme Gimme This This...")
G|---------------------------------|---------------------------------|
D|---------------------------------|---------------------------------|
A|------------5--------------------|------------5--------------------|
E|-7-7-7-7--5---5--7-7-7-7-7-7-7-7-|-7-7-7-7--5---5--3-3-3-3-3-3-3-3-|

[Chorus] ("And I Know I'm Gonna Pay...")
G|---------------------------------------------------------------------|
D|--------------------9-7-----9-7--------------------------------------|
A|-3-3-3-3-3-3-3-3--------9-------9--3-3-3-3-3-3-3-3--7---7---7---7--7-|
E|------------------7-------7------------------------------------------|

[Verse] ("Gimme Gimme This This...")
G|---------------------------------|---------------------------------|
D|---------------------------------|---------------------------------|
A|------------5--------------------|------------5--------------------|
E|-7-7-7-7--5---5--7-7-7-7-7-7-7-7-|-7-7-7-7--5---5--3-3-3-3-3-3-3-3-|

[Chorus] ("And I Know I'm Gonna Pay...")
G|---------------------------------------------------------------------|
D|--------------------9-7-----9-7--------------------------------------|
A|-3-3-3-3-3-3-3-3--------9-------9--3-3-3-3-3-3-3-3--7---7---7---7--7-|
E|------------------7-------7------------------------------------------|

[Solo]
G|---------------------------------|---------------------------------|
D|---------------------------------|---------------------------------|
A|------------5--------------------|------------5--------------------|
E|-7-7-7-7--5---5--7-7-7-7-7-7-7-7-|-7-7-7-7--5---5--3-3-3-3-3-3-3-3-|

G|---------------------------------|---------------------------------|
D|---------------------------------|---------------------------------|
A|------------5--------------------|------------5--------------------|
E|-7-7-7-7--5---5--7-7-7-7-7-7-7-7-|-7-7-7-7--5---5--3-3-3-3-3-3-3-3-|

[Chorus] ("And I Know I'm Gonna Pay...")
G|---------------------------------------------------------------------|------------|
D|--------------------9-7-----9-7--------------------------------------|------------|
A|-3-3-3-3-3-3-3-3--------9-------9--3-3-3-3-3-3-3-3--7---7---7---7--7-|------------|
E|------------------7-------7------------------------------------------|-7-7--------|
Suggest correction
Give kudos to tab author, rate the tab!
1 2 3 4 5
comments
print report bad tab
guest
You may want to rate the tab now too:
select rating
Wanna post a correction for this tab? Suggest correction