Oops, an error
Loading. Please wait.

Go Down On Me Bass Tab

7 views 1 this week
no commentswrite comment
1 2 3 4 5
3 more votes to show rating
add to favorites
launch autoscroll
font size
0
reset
guitar tuner
Autoscroll
slow
fast
+/-
esc
set tempo
stop
Help us to improve Ultimate-Guitar.com Take our survey!
×
Author
Difficulty
[Intro]
G|-------------------------|-------------------------|-------------------------|
D|-------------------------|-------------------------|-------------------------|
A|---------0--2-2-2-2--2-0-|---------0--2-2-2-2--2-0-|---------0--2-2-2-2--2-0-|
E|-2-2-0-2-----------------|-2-2-0-2-----------------|-2-2-0-2-----------------|

[Verse] ("Yeah Baby Your Face Is Okay...")
G|----------------------------------------------------------------------|
D|----------------------------------------------------------------------|
A|----------------------------------------------------------------------|
E|-2-2-2-2-2-2-2-5--2-2-2-2-2-2-2-5--0-0-0-0-0-0-0-0--2-2-2-2-2-2-2-2-2-|

[Chorus] ("Baby Go Down On Me, Well It's My Favorite Way...")
G|-------------------------|-------------------------|-------------------------|-------------------------|
D|-------------------------|-------------------------|-------------------------|-------------------------|
A|---------0--2-2-2-2--2-0-|---------0--2-2-2-2--2-0-|---------0--2-2-2-2--2-0-|---------0--2-2-2-2--2-0-|
E|-2-2-0-2-----------------|-2-2-0-2-----------------|-2-2-0-2-----------------|-2-2-0-2-----------------|

("Go Down On Me...")
G|----------------------|---------------------|---------------------|---------------------------|
D|----------------------|---------------------|---------------------|---------------------------|
A|-0-0-0--2-2-2---------|-0-0-0--2-2-2--------|-0-0-0--2-2-2--------|-0-0-0--2-2-2--4-4-4-4-4---|
E|--------------2-2-2-2-|-------------2-2-2-2-|-------------2-2-2-2-|---------------------------|

[Verse] ("Yeah Baby You Think You're Cool...")
G|----------------------------------------------------------------------|
D|----------------------------------------------------------------------|
A|----------------------------------------------------------------------|
E|-2-2-2-2-2-2-2-5--2-2-2-2-2-2-2-5--0-0-0-0-0-0-0-0--2-2-2-2-2-2-2-2-2-|

[Chorus] ("Baby Go Down On Me, Well It's My Favorite Way...")
G|-------------------------|-------------------------|-------------------------|-------------------------|
D|-------------------------|-------------------------|-------------------------|-------------------------|
A|---------0--2-2-2-2--2-0-|---------0--2-2-2-2--2-0-|---------0--2-2-2-2--2-0-|---------0--2-2-2-2--2-0-|
E|-2-2-0-2-----------------|-2-2-0-2-----------------|-2-2-0-2-----------------|-2-2-0-2-----------------|

("Go Down On Me...")
G|----------------------|---------------------|---------------------|---------------------------|
D|----------------------|---------------------|---------------------|---------------------------|
A|-0-0-0--2-2-2---------|-0-0-0--2-2-2--------|-0-0-0--2-2-2--------|-0-0-0--2-2-2--4-4-4-4-4---|
E|--------------2-2-2-2-|-------------2-2-2-2-|-------------2-2-2-2-|---------------------------|

[Verse] ("Yeah Baby Your Face Is Okay...")
G|---------------------------------------------------------------------|
D|---------------------------------------------------------------------|
A|---------------------------------------------------------------------|
E|----------------------------------0----------------2-----------------|

[Chorus] ("Baby Go Down On Me, Well It's My Favorite Way...")
G|-------------------------|-------------------------|-------------------------|-------------------------|
D|-------------------------|-------------------------|-------------------------|-------------------------|
A|---------0--2-2-2-2--2-0-|---------0--2-2-2-2--2-0-|---------0--2-2-2-2--2-0-|---------0--2-2-2-2--2-0-|
E|-2-2-0-2-----------------|-2-2-0-2-----------------|-2-2-0-2-----------------|-2-2-0-2-----------------|

("Go Down On Me...")
G|----------------------|---------------------|---------------------|---------------------------------------|
D|----------------------|---------------------|---------------------|---------------------------------------|
A|-0-0-0--2-2-2---------|-0-0-0--2-2-2--------|-0-0-0--2-2-2--------|-0-0-0--2-2-2--4-4-4-4-4-4-4-4-4-4-4-4-|
E|--------------2-2-2-2-|-------------2-2-2-2-|-------------2-2-2-2-|---------------------------------------|
Suggest correction
Give kudos to tab author, rate the tab!
1 2 3 4 5
comments
print report bad tab
guest
You may want to rate the tab now too:
select rating
Wanna post a correction for this tab? Suggest correction