Oops, an error
Loading. Please wait.

Hatred Is A Way Of Life Bass Tab

4 views 1 this week
no commentswrite comment
1 2 3 4 5
3 more votes to show rating
add to favorites
launch autoscroll
font size
0
reset
guitar tuner
Autoscroll
slow
fast
+/-
esc
set tempo
stop
Help us to improve Ultimate-Guitar.com Take our survey!
×
Author
Difficulty
[Intro]
G|----------------------------|----------------------------|----------------------------|
D|----------------------------|---2-0----2-0----2-0----2-0-|---2-0----2-0----2-0----2-0-|
A|-2------2------2------2-----|-2------2------2------2-----|-2------2------2------2-----|
E|----------------------------|----------------------------|----------------------------|

[Verse] ("Hatred Is A Way Of Life...")
G|----------------------------|----------------------------|
D|---2-0----2-0----2-0----2-0-|---2-0----2-0----2-0----2-0-|
A|-2------2------2------2-----|-2------2------2------2-----|
E|----------------------------|----------------------------|

[Chorus] ("I Hate You, No Matter What You Do...")
G|---------------------------------|---------------------------------|
D|---------------------------------|---------------------------------|
A|-2-2-2-2---------5-5-5-5---------|-2-2-2-2---------5-5-5-5---------|
E|---------3-3-3-3---------5-5-5-5-|---------3-3-3-3---------5-5-5-5-|

[Verse] ("Hatred Is A Way Of Life...")
G|----------------------------|----------------------------|
D|---2-0----2-0----2-0----2-0-|---2-0----2-0----2-0----2-0-|
A|-2------2------2------2-----|-2------2------2------2-----|
E|----------------------------|----------------------------|

[Chorus] ("I Hate You, No Matter What You Do...")
G|---------------------------------|---------------------------------|
D|---------------------------------|---------------------------------|
A|-2-2-2-2---------5-5-5-5---------|-2-2-2-2---------5-5-5-5---------|
E|---------3-3-3-3---------5-5-5-5-|---------3-3-3-3---------5-5-5-5-|

[Bridge]
G|----------------------------|----------------------------|
D|---2-0----2-0----2-0----2-0-|---2-0----2-0----2-0----2-0-|
A|-2------2------2------2-----|-2------2------2------2-----|
E|----------------------------|----------------------------|

G|---2-0----2-0----2-0----2-0-|----------------------------|
D|-2------2------2------2-----|---2-0----2-0----2-0----2-0-|
A|----------------------------|-2------2------2------2-----|
E|----------------------------|----------------------------|

[Chorus] ("Because I Hate You, No Matter What You Do...")
G|---------------------------------|---------------------------------|
D|---------------------------------|---------------------------------|
A|-2-2-2-2---------5-5-5-5---------|-2-2-2-2---------5-5-5-5---------|
E|---------3-3-3-3---------5-5-5-5-|---------3-3-3-3---------5-5-5-5-|

("I Hate You, No Matter What You Do...")
G|---------------------------------|---------------------------------|
D|---------------------------------|---------------------------------|
A|-2-2-2-2---------5-5-5-5---------|-2-2-2-2---------5-5-5-5---------|
E|---------3-3-3-3---------5-5-5-5-|---------3-3-3-3---------5-5-5-5-|

[Outro]
G|----------------------------|----------------------------|
D|----------------------------|----------------------------|
A|-2------2------2------2-----|-2--------------------------|
E|----------------------------|----------------------------|

That's The Whole Song, In Order Too.
Suggest correction
Give kudos to tab author, rate the tab!
1 2 3 4 5
comments
print report bad tab
guest
You may want to rate the tab now too:
select rating
Wanna post a correction for this tab? Suggest correction