Oops, an error
Loading. Please wait.

Hatred Is A Way Of Life Tab

4 views 1 this week
no commentswrite comment
1 2 3 4 5
3 more votes to show rating
add to favorites
launch autoscroll
font size
0
reset
how to read this tab
guitar tuner
Autoscroll
slow
fast
+/-
esc
set tempo
stop
Help us to improve Ultimate-Guitar.com Take our survey!
×
Author
Difficulty
[Intro]
E|----------------------------|----------------------------|----------------------------|
B|----------------------------|----------------------------|----------------------------|
G|----------------------------|----------------------------|----------------------------|
D|---9-7----9-7----9-7----9-7-|---9-7----9-7----9-7----9-7-|---9-7----9-7----9-7----9-7-|
A|-9-7-5--9-7-5--9-7-5--9-7-5-|-9-7-5--9-7-5--9-7-5--9-7-5-|-9-7-5--9-7-5--9-7-5--9-7-5-|
E|-7------7------7------7-----|-7------7------7------7-----|-7------7------7------7-----|

[Verse]
("Hatred Is A Way Of Life...")
E|----------------------------|----------------------------|
B|----------------------------|----------------------------|
G|----------------------------|----------------------------|
D|---9-7----9-7----9-7----9-7-|---9-7----9-7----9-7----9-7-|
A|-9-7-5--9-7-5--9-7-5--9-7-5-|-9-7-5--9-7-5--9-7-5--9-7-5-|
E|-7------7------7------7-----|-7------7------7------7-----|

[Chorus]
("I Hate You, No Matter What You Do...")
E|------------------------------------|------------------------------------|
B|------------------------------------|------------------------------------|
G|-4-4-4-4-----------7-7-7-7----------|-4-4-4-4-----------7-7-7-7----------|
D|-4-4-4-4--5-5-5-5--7-7-7-7--7-7-7-7-|-4-4-4-4--5-5-5-5--7-7-7-7--7-7-7-7-|
A|-2-2-2-2--5-5-5-5--5-5-5-5--7-7-7-7-|-2-2-2-2--5-5-5-5--5-5-5-5--7-7-7-7-|
E|----------3-3-3-3-----------5-5-5-5-|----------3-3-3-3-----------5-5-5-5-|

[Verse]
("Hatred Is A Way Of Life...")
E|----------------------------|----------------------------|
B|----------------------------|----------------------------|
G|----------------------------|----------------------------|
D|---9-7----9-7----9-7----9-7-|---9-7----9-7----9-7----9-7-|
A|-9-7-5--9-7-5--9-7-5--9-7-5-|-9-7-5--9-7-5--9-7-5--9-7-5-|
E|-7------7------7------7-----|-7------7------7------7-----|

[Chorus]
("I Hate You, No Matter What You Do...")
E|------------------------------------|------------------------------------|
B|------------------------------------|------------------------------------|
G|-4-4-4-4-----------7-7-7-7----------|-4-4-4-4-----------7-7-7-7----------|
D|-4-4-4-4--5-5-5-5--7-7-7-7--7-7-7-7-|-4-4-4-4--5-5-5-5--7-7-7-7--7-7-7-7-|
A|-2-2-2-2--5-5-5-5--5-5-5-5--7-7-7-7-|-2-2-2-2--5-5-5-5--5-5-5-5--7-7-7-7-|
E|----------3-3-3-3-----------5-5-5-5-|----------3-3-3-3-----------5-5-5-5-|

[Bridge]
E|----------------------------|----------------------------|
B|----------------------------|----------------------------|
G|----------------------------|----------------------------|
D|---9-7----9-7----9-7----9-7-|---9-7----9-7----9-7----9-7-|
A|-9-7-5--9-7-5--9-7-5--9-7-5-|-9-7-5--9-7-5--9-7-5--9-7-5-|
E|-7------7------7------7-----|-7------7------7------7-----|

E|----------------------------|----------------------------|
B|----------------------------|----------------------------|
G|---9-7----9-7----9-7----9-7-|----------------------------|
D|-9-7-5--9-7-5--9-7-5--9-7-5-|---9-7----9-7----9-7----9-7-|
A|-7------7------7------7-----|-9-7-5--9-7-5--9-7-5--9-7-5-|
E|----------------------------|-7------7------7------7-----|

[Chorus]
("Because I Hate You, No Matter What You Do...")
E|------------------------------------|------------------------------------|
B|------------------------------------|------------------------------------|
G|-4-4-4-4-----------7-7-7-7----------|-4-4-4-4-----------7-7-7-7----------|
D|-4-4-4-4--5-5-5-5--7-7-7-7--7-7-7-7-|-4-4-4-4--5-5-5-5--7-7-7-7--7-7-7-7-|
A|-2-2-2-2--5-5-5-5--5-5-5-5--7-7-7-7-|-2-2-2-2--5-5-5-5--5-5-5-5--7-7-7-7-|
E|----------3-3-3-3-----------5-5-5-5-|----------3-3-3-3-----------5-5-5-5-|

("I Hate You, No Matter What You Do...")
E|------------------------------------|------------------------------------|
B|------------------------------------|------------------------------------|
G|-4-4-4-4-----------7-7-7-7----------|-4-4-4-4-----------7-7-7-7----------|
D|-4-4-4-4--5-5-5-5--7-7-7-7--7-7-7-7-|-4-4-4-4--5-5-5-5--7-7-7-7--7-7-7-7-|
A|-2-2-2-2--5-5-5-5--5-5-5-5--7-7-7-7-|-2-2-2-2--5-5-5-5--5-5-5-5--7-7-7-7-|
E|----------3-3-3-3-----------5-5-5-5-|----------3-3-3-3-----------5-5-5-5-|

[Outro]
E|----------------------------|----------------------------|
B|----------------------------|----------------------------|
G|----------------------------|----------------------------|
D|---9-7----9-7----9-7----9-7-|-9--------------------------|
A|-9-7-5--9-7-5--9-7-5--9-7-5-|-9--------------------------|
E|-7------7------7------7-----|-7--------------------------|
Suggest correction
Give kudos to tab author, rate the tab!
1 2 3 4 5
comments
print report bad tab
guest
You may want to rate the tab now too:
select rating
Wanna post a correction for this tab? Suggest correction