Oops, an error
Loading. Please wait.

I Never Sleep Bass Tab

10 views 1 this week
no commentswrite comment
1 2 3 4 5
3 more votes to show rating
add to favorites
launch autoscroll
font size
0
reset
guitar tuner
Autoscroll
slow
fast
+/-
esc
set tempo
stop
Help us to improve Ultimate-Guitar.com Take our survey!
×
Author
Difficulty
[Intro]                                                      x3
G|------------------------------------------------------------|
D|------------------------------------------------------------|
A|------------------------------------------------------------|
E|-5--3-3-5--3-3-5--3-3--5-5-3-3--1--1---1-1-1--3-3-1-1--3-1--|

 [Verse]
G|---------------------------------|---------------------------------|
D|---------------------------------|-------------------------3-3-3-3-|
A|-----------------3-3-3-3---------|-----------------3-3-3-3---------|
E|-5-5-5-5-5-5-5-5---------1-1-1-1-|-5-5-5-5-5-5-5-5-----------------|

G|---------------------------------|---------------------------------|
D|---------------------------------|-------------------------3-3-3-3-|
A|-----------------3-3-3-3---------|-----------------3-3-3-3---------|
E|-5-5-5-5-5-5-5-5---------1-1-1-1-|-5-5-5-5-5-5-5-5-----------------|

 [Chorus]  ("I Never Sleep, I Never Eat...")                  x2
G|------------------------------------------------------------|
D|------------------------------------------------------------|
A|------------------------------------------------------------|
E|-5--3-3-5--3-3-5--3-3--5-5-3-3--1--1---1-1-1--3-3-1-1--3-1--|

 [Verse]
G|---------------------------------|---------------------------------|
D|---------------------------------|-------------------------3-3-3-3-|
A|-----------------3-3-3-3---------|-----------------3-3-3-3---------|
E|-5-5-5-5-5-5-5-5---------1-1-1-1-|-5-5-5-5-5-5-5-5-----------------|

G|---------------------------------|---------------------------------|
D|---------------------------------|-------------------------3-3-3-3-|
A|-----------------3-3-3-3---------|-----------------3-3-3-3---------|
E|-5-5-5-5-5-5-5-5---------1-1-1-1-|-5-5-5-5-5-5-5-5-----------------|

 [Chorus]  ("I Never Sleep, I Never Eat...")                  x2
G|------------------------------------------------------------|
D|------------------------------------------------------------|
A|------------------------------------------------------------|
E|-5--3-3-5--3-3-5--3-3--5-5-3-3--1--1---1-1-1--3-3-1-1--3-1--|

 [Solo]
G|---------------------------------|---------------------------------|
D|---------------------------------|-------------------------3-3-3-3-|
A|-----------------3-3-3-3---------|-----------------3-3-3-3---------|
E|-5-5-5-5-5-5-5-5---------1-1-1-1-|-5-5-5-5-5-5-5-5-----------------|

G|---------------------------------|---------------------------------|
D|---------------------------------|-------------------------3-3-3-3-|
A|-----------------3-3-3-3---------|-----------------3-3-3-3---------|
E|-5-5-5-5-5-5-5-5---------1-1-1-1-|-5-5-5-5-5-5-5-5-----------------|

 Chorus                                                     x4
G|------------------------------------------------------------|
D|------------------------------------------------------------|
A|------------------------------------------------------------|
E|-5--3-3-5--3-3-5--3-3--5-5-3-3--1--1---1-1-1--3-3-1-1--3-1--|
Suggest correction
Give kudos to tab author, rate the tab!
1 2 3 4 5
comments
print report bad tab
guest
You may want to rate the tab now too:
select rating
Wanna post a correction for this tab? Suggest correction