Oops, an error
Loading. Please wait.

Kill Me Bass

19 views 3 this week
no commentswrite comment
1 2 3 4 5
3 more votes to show rating
add to favorites
launch autoscroll
font size
0
reset
guitar tuner
×
Best way to learn
"Kill Me"
Autoscroll
slow
fast
+/-
esc
set tempo
stop
[Intro]
G|--------------------|--------------------|
D|--------------------|--------------------|
A|----------------1-1-|----------------1-1-|
E|--------------------|--------------------|


[Chorus]
("Kill Me...")
G|--------------------|--------------------|--------------------|--------------------|
D|--------------------|--------------------|--------------------|--------------------|
A|----------------1-1-|----------------1-1-|----------------1-1-|----------------1-1-|
E|-3-3--0-0--3-3------|-3-3--0-0--3-3------|-3-3--0-0--3-3------|-3-3--0-0--3-3------|


[Verse]
("You, You Fucking Bitch, You Make Me Sick")
G|---------------------------------|--------------------|--------------------|
D|-------------------------4-4-4-4-|--------------------|--------------------|
A|-3-3-3-3---------3-3-3-3---------|----------------1-1-|----------------1-1-|
E|---------2-2-2-2-----------------|-3------------------|--------------------|


[Chorus]
("Kill Me...")
G|--------------------|--------------------|--------------------|--------------------|
D|--------------------|--------------------|--------------------|--------------------|
A|----------------1-1-|----------------1-1-|----------------1-1-|----------------1-1-|
E|-3-3--0-0--3-3------|-3-3--0-0--3-3------|-3-3--0-0--3-3------|-3-3--0-0--3-3------|


[Verse]
("You, You Fucking Pig")
G|---------------------------------|--------------------|--------------------|
D|-------------------------4-4-4-4-|--------------------|--------------------|
A|-3-3-3-3---------3-3-3-3---------|----------------1-1-|----------------1-1-|
E|---------2-2-2-2-----------------|-3------------------|--------------------|


[Chorus]
("Kill Me...")
G|--------------------|--------------------|--------------------|--------------------|
D|--------------------|--------------------|--------------------|--------------------|
A|----------------1-1-|----------------1-1-|----------------1-1-|----------------1-1-|
E|-3-3--0-0--3-3------|-3-3--0-0--3-3------|-3-3--0-0--3-3------|-3-3--0-0--3-3------|


[Verse]
("You, You Fucking Whore, I Want Some More")
G|---------------------------------|--------------------|--------------------|
D|-------------------------4-4-4-4-|--------------------|--------------------|
A|-3-3-3-3---------3-3-3-3---------|----------------1-1-|----------------1-1-|
E|---------2-2-2-2-----------------|-3------------------|--------------------|
Suggest correction
Give kudos to tab author, rate the tab!
1 2 3 4 5
comments
print report bad tab
guest
You may want to rate the tab now too:
select rating
Wanna post a correction for this tab? Suggest correction