Oops, an error
Loading. Please wait.

River City Rapist Bass Tab

16 views 1 this week
no commentswrite comment
1 2 3 4 5
3 more votes to show rating
add to favorites
launch autoscroll
font size
0
reset
guitar tuner
Autoscroll
slow
fast
+/-
esc
set tempo
stop
Help us to improve Ultimate-Guitar.com Take our survey!
×
Author
Difficulty
[Intro]
G|---------------------------------|---------------------------------|
D|---------------------------------|---------------------------------|
A|-------------------------3-5-3---|-------------------------3-5-3---|
E|-------------------------------3-|-5-----------------------------3-|


[Verse] ("Break In Your Daughter's Room...")
G|---------------------------------|---------------------------------|
D|---------------------------------|---------------------------------|
A|-----------------7-7-7-7-3-5-3---|-----------------7-7-7-7-3-5-3---|
E|-5-5-5-5-5-5-5-5---------------3-|-5-5-5-5-5-5-5-5---------------3-|

G|---------------------------------|---------------------------------|
D|---------------------------------|---------------------------------|
A|-----------------7-7-7-7-3-5-3---|-----------------7-7-7-7-3-5-3---|
E|-5-5-5-5-5-5-5-5---------------3-|-5-5-5-5-5-5-5-5---------------3-|


[Chorus] ("I'm A River City Rapist, I'm Gonna Rape The USA")
G|---------------------------------|---------------------------------|
D|---------------------------------|---------------------------------|
A|-8-8-8-8-8-8-8-8-----------------|-8-8-8-8-8-8-8-8-----------------|
E|-----------------5-5-5-5-5-5-5-5-|-----------------5-5-5-5-5-5-5-5-|


[Verse] ("Now Don't You Say A Word...")
G|---------------------------------|---------------------------------|
D|---------------------------------|---------------------------------|
A|-----------------7-7-7-7-3-5-3---|-----------------7-7-7-7-3-5-3---|
E|-5-5-5-5-5-5-5-5---------------3-|-5-5-5-5-5-5-5-5---------------3-|

G|---------------------------------|---------------------------------|
D|---------------------------------|---------------------------------|
A|-----------------7-7-7-7-3-5-3---|-----------------7-7-7-7-3-5-3---|
E|-5-5-5-5-5-5-5-5---------------3-|-5-5-5-5-5-5-5-5---------------3-|


[Chorus]
G|---------------------------------|---------------------------------|
D|---------------------------------|---------------------------------|
A|-8-8-8-8-8-8-8-8-----------------|-8-8-8-8-8-8-8-8-----------------|
E|-----------------5-5-5-5-5-5-5-5-|-----------------5-5-5-5-5-5-5-5-|

  ("Now I Don't Need No Reason...    There's No Need To Wonder Why...")
G|----------------------------------|----------------------------------|
D|----------------------------------|----------------------------------|
A|-3-3-3-3-3-3-3-3--7-7-7-7-7-7-7-7-|-3-3-3-3-3-3-3-3--7-7-7-7-7-7-7-7-|
E|----------------------------------|----------------------------------|


[Solo]
G|---------------------------------|---------------------------------|
D|---------------------------------|---------------------------------|
A|-----------------7-7-7-7-3-5-3---|-----------------7-7-7-7-3-5-3---|
E|-5-5-5-5-5-5-5-5---------------3-|-5-5-5-5-5-5-5-5---------------3-|

G|---------------------------------|---------------------------------|
D|---------------------------------|---------------------------------|
A|-----------------7-7-7-7-3-5-3---|-----------------7-7-7-7-3-5-3---|
E|-5-5-5-5-5-5-5-5---------------3-|-5-5-5-5-5-5-5-5---------------3-|


Final Chorus ("I'm A River City Fuckin' Rapist...")
G|---------------------------------|-------------------------------------|
D|---------------------------------|-------------------------------------|
A|-8-8-8-8-8-8-8-8-----------------|-8-8-8-8-8-8-8-8---------3-5-3-------|
E|-----------------5-5-5-5-5-5-5-5-|-----------------5-5-5-5-------3-5---|
Suggest correction
Give kudos to tab author, rate the tab!
1 2 3 4 5
comments
print report bad tab
guest
You may want to rate the tab now too:
select rating
Wanna post a correction for this tab? Suggest correction