Oops, an error
Loading. Please wait.

Blue Ghosts tab

16 views 3 this week
no commentswrite comment
1 2 3 4 5
2 more votes to show rating
add to favorites
×
Save as Personal and add changes to this tab that will be seen only by you. Learn more ›
×
You can save this tab as Personal to edit and correct it or add notes. All changes will be seen only by you. Learn more »
launch autoscroll
font size
0
reset
how to read this tab
guitar tuner
edit
Autoscroll
slow
fast
+/-
esc
set tempo
stop
                                The Riverboat Gamblers - Blue Ghosts
                                     Album: The Wolf You Feed
                                Song: Blue Ghosts(OST NFS Most Wanted)
                                           Tuning Drop D


[Intro]
[Guitar 1]
[0:00-0:19]

e|-----------------------------------------------------------------------|
B|-----------------------------------------------------------------------|
G|-----------------------------------------------------------------------| (x4)
D|-6h8-8-8-8-8-8-8-8-8-8-8-8-8-----6h8-8-8-8-8-8-8-8-8-8-8-8-8--6-6------|
A|-----------------------------6h8----------------------------------6-6--|
D|-----------------------------------------------------------------------|


[Intro]
[Guitar 2]
[0:08-0:19]

e|-------------------------------------------------|
B|-------------------------------------------------|
G|-------------------------------------------------|
D|---------------------------------------6-6--1-1--|
A|---------------------------------------6-6--1-1--|
D|---------------------------------------6-6--1-1--|

e|-----------------------------------------------------------------------|
B|-----------------------------------------------------------------------|
G|-----------------------------------------------------------------------| (x2)
D|-8-8-8-8-8-8-8-8-8-8-8-8--6-6--8-8-8-8-8-8-8-8-8-8-8-8--6-6--1-1-------|
A|-8-8-8-8-8-8-8-8-8-8-8-8--6-6--8-8-8-8-8-8-8-8-8-8-8-8--6-6--1-1-------|
D|-8-8-8-8-8-8-8-8-8-8-8-8--6-6--8-8-8-8-8-8-8-8-8-8-8-8--6-6--1-1-------|
     . . . . . . . . . . .         . . . . . . . . . . .

[Verse]
[Guitar 1]
[0:20-0:37]

e|-----------------------------------------------------------------------|
B|-----------------------------------------------------------------------|
G|-----------------------------------------------------------------------| (x4)
D|-6h8-8-8-8-8-8-8-8-8-8-8-8-8-----6h8-8-8-8-8-8-8-8-8-8-8-8-8--6-6------|
A|-----------------------------6h8----------------------------------6-6--|
D|-----------------------------------------------------------------------|


[Verse]
[Guitar 2]
[0:20-0:37]

e|------------------------------------------|
B|------------------------------------------|
G|------------------------------------------| (x4)
D|-8-8------6-6-8-8------6-6--1-1-----------|
A|-8-8------6-6-8-8------6-6--1-1-----------|
D|-8-8------6-6-8-8------6-6--1-1-----------|


[Pre-Chorus]
[Guitar 1]
[0:38-0:47]

e|------------------------------------------|
B|-7------11-6--------11-7-------11-4--t6b\-|
G|------------------------------------------|
D|------------------------------------------|
A|------------------------------------------|
D|------------------------------------------|


[Pre-Chorus]
[Guitar 2]
[0:38-0:47]

e|------------------------------------------------------------------------|
B|------------------------------------------------------------------------|
G|------------------------------------------------------------------------|
D|-4-4-4-4-4-4--8-8--3-3-3-3-3-3-3-3--4-4-4-4-4-4-4-4--6-6-6-6--8-8-8-8---|
A|-4-4-4-4-4-4--8-8--3-3-3-3-3-3-3-3--4-4-4-4-4-4-4-4--6-6-6-6--8-8-8-8---|
D|-4-4-4-4-4-4--8-8--3-3-3-3-3-3-3-3--4-4-4-4-4-4-4-4--6-6-6-6--8-8-8-8---|


[Chorus]
[Guitar 1]
[0:47-1:05]              [0:57]

e|---------------------------------------------------------------------------|
B|-11--------9-11--------9-11----11----11----11----11----11----11----11-9-11-|
G|----------------------------10----10----10----10----10----10----10---------|
D|---------------------------------------------------------------------------|
A|---------------------------------------------------------------------------|
D|---------------------------------------------------------------------------|

e|-----------------------------------------------|
B|--------11----11----11----11----11----11----11-|
G|-----10----10----10----10----10----10----10----|
D|-----------------------------------------------|
A|-----------------------------------------------|
D|-----------------------------------------------|


[Chorus]
[Guitar 2]
[0:47-1:05]

e|---------------------------------|
B|---------------------------------|
G|---------6-6-6-6---------8-8-8-8-| (x4)
D|-8-8-8-8-6-6-6-6-6-6-6-6-8-8-8-8-|
A|-8-8-8-8-4-4-4-4-6-6-6-6-6-6-6-6-|
D|-8-8-8-8---------6-6-6-6---------|


[Pre-Verse]
[Guitar 1]
[1:06-1:16]

e|----------------------------------------------------------------------|
B|----------------------------------------------------------------------|
G|----------------------------------------------------------------------| (x2)
D|-6h8-8-8-8-8-8-8-8-8-8-8-8-8-----6h8-8-8-8-8-8-8-8-8-8-8-8-8-6-6------|
A|-----------------------------6h8---------------------------------6-6--|
D|----------------------------------------------------------------------|


[Pre-Verse]
[Guitar 2]
[1:06-1:16]

e|----------------------------------------------------------------------|
B|----------------------------------------------------------------------|
G|----------------------------------------------------------------------| (x2)
D|-8-8-8-8-8-8-8-8-8-8-8-8--6-6--8-8-8-8-8-8-8-8-8-8-8-8--6-6--1-1------|
A|-8-8-8-8-8-8-8-8-8-8-8-8--6-6--8-8-8-8-8-8-8-8-8-8-8-8--6-6--1-1------|
D|-8-8-8-8-8-8-8-8-8-8-8-8--6-6--8-8-8-8-8-8-8-8-8-8-8-8--6-6--1-1------|
     . . . . . . . . . . .         . . . . . . . . . . .

[Verse]
[(only)Guitar 2]
[1:17-1:25]

e|--------------------------------------|
B|--------------------------------------|
G|--------------------------------------| (x2)
D|-8-8--8-8--8-8----8-8--8-8---6-6--1-1-|
A|-8-8--8-8--8-8----8-8--8-8---6-6--1-1-|
D|-8-8--8-8--8-8----8-8--8-8---6-6--1-1-|


[Verse]
[Guitar 1]
[1:25-1:34]
e|-----------------------------------------------------------------------|
B|-----------------------------------------------------------------------|
G|-----------------------------------------------------------------------| (x2)
D|-6h8-8-8-8-8-8-8-8-8-8-8-8-8-----6h8-8-8-8-8-8-8-8-8-8-8-8-8--6-6------|
A|-----------------------------6h8----------------------------------6-6--|
D|-----------------------------------------------------------------------|


[Verse]
[Guitar 2]
[1:25-1:34]
e|-----------------------------------------------------------------------|
B|-----------------------------------------------------------------------|
G|-----------------------------------------------------------------------| (x2)
D|-8-8-8-8-8-8-8-8-8-8-8-8--6-6--8-8-8-8-8-8-8-8-8-8-8-8--6-6--1-1-------|
A|-8-8-8-8-8-8-8-8-8-8-8-8--6-6--8-8-8-8-8-8-8-8-8-8-8-8--6-6--1-1-------|
D|-8-8-8-8-8-8-8-8-8-8-8-8--6-6--8-8-8-8-8-8-8-8-8-8-8-8--6-6--1-1-------|
     . . . . . . . . . . .         . . . . . . . . . . .


[Pre-Chorus]
[Guitar 1]
[1:34-1:43]

e|------------------------------------------|
B|-7------11-6--------11-7-------11-4--t6b\-|
G|------------------------------------------|
D|------------------------------------------|
A|------------------------------------------|
D|------------------------------------------|


[Pre-Chorus]
[Guitar 2]
[1:34-1:43]

e|----------------------------------------------------------------------|
B|----------------------------------------------------------------------|
G|----------------------------------------------------------------------|
D|-4-4-4-4-4-4--8-8--3-3-3-3-3-3-3-3--4-4-4-4-4-4-4-4--6-6-6-6--8-8-8-8-|
A|-4-4-4-4-4-4--8-8--3-3-3-3-3-3-3-3--4-4-4-4-4-4-4-4--6-6-6-6--8-8-8-8-|
D|-4-4-4-4-4-4--8-8--3-3-3-3-3-3-3-3--4-4-4-4-4-4-4-4--6-6-6-6--8-8-8-8-|


[Chorus]
[Guitar 1]
[1:44-2:03]              

e|---------------------------------------------------------------------------|
B|-11--------9-11--------9-11----11----11----11----11----11----11----11-9-11-|
G|----------------------------10----10----10----10----10----10----10---------|
D|---------------------------------------------------------------------------|
A|---------------------------------------------------------------------------|
D|---------------------------------------------------------------------------|

e|------------------------------------------------|
B|-9-11----11----11----11----11----11----11----11-|
G|------10----10----10----10----10----10----10----|
D|------------------------------------------------|
A|------------------------------------------------|
D|------------------------------------------------|


[Chorus]
[Guitar 2]
[1:44-2:03]

e|---------------------------------|
B|---------------------------------|
G|---------6-6-6-6---------8-8-8-8-| (x4)
D|-8-8-8-8-6-6-6-6-6-6-6-6-8-8-8-8-|
A|-8-8-8-8-4-4-4-4-6-6-6-6-6-6-6-6-|
D|-8-8-8-8---------6-6-6-6---------|


[Solo] (Dont sure about this)
[Guitar 1]
[2:04-2:22]

e|-------------------------------------------------------------------|
B|-------------------------------------------------------------------|
G|-------------------------------------------------------------------| (x4)
D|---------------------------------------------------1-1-1-1---------|
A|-1-1-0-1-4-1-0-1--1-1-0-1-0-1-0-1--1-1-0-1-4-1-0-1---------4-4-4-0-|
D|-------------------------------------------------------------------|


[Solo]
[Guitar 2]
[2:04-2:22]

e|---------------------|
B|---------------------|
G|------------88-66----| (x4)
D|-88---88688-88-66-88-|
A|-88---88688-66-44-88-|
D|-88---88688-------88-|


[Pre-Chorus] [Uuuuh]
[Guitar 1]
[2:22-2:32]

e|---------------------------------------------------------------------|
B|-7------11-6--------11-7-------11---4-4-4-4-4-4-4-4-1-1-1-1-1-1-1-1\-|
G|---------------------------------------------------------------------|
D|---------------------------------------------------------------------|
A|---------------------------------------------------------------------|
D|---------------------------------------------------------------------|


[Pre-Chorus]
[Guitar 2]
[2:22-2:32]

e|---------------------------------------------------------------------|
B|---------------------------------------------------------------------|
G|---------------------------------------------------------------------|
D|-4-4-4-4-4-4--88--3-3-3-3-3-3-3-3--4-4-4-4-4-4-4-4--6-6-6-6--3-3-3-3-|
A|-4-4-4-4-4-4--88--3-3-3-3-3-3-3-3--4-4-4-4-4-4-4-4--6-6-6-6--3-3-3-3-|
D|-4-4-4-4-4-4--88--3-3-3-3-3-3-3-3--4-4-4-4-4-4-4-4--6-6-6-6--3-3-3-3-|


[Bridge]
[Guitar 1]
[2:31-2:40]

e|-----------------------------------------------------------------------|
B|-----------------------------------------------------------------------|
G|-----------------------------------------------------------------------| (x2)
D|-6h8-8-8-8-8-8-8-8-8-8-8-8-8-----6h8-8-8-8-8-8-8-8-8-8-8-8-8--6-6------|
A|-----------------------------6h8----------------------------------6-6--|
D|-----------------------------------------------------------------------|


[Chorus]
[Guitar 1]
[2:41-3:00]     

e|---------------------------------------------------------------------------|
B|-11--------9-11--------9-11----11----11----11----11----11----11----11-9-11-|
G|----------------------------10----10----10----10----10----10----10---------|
D|---------------------------------------------------------------------------|
A|---------------------------------------------------------------------------|
D|---------------------------------------------------------------------------|

e|------------------------------------------------|
B|-9-11----11----11----11----11----11----11----11-|
G|------10----10----10----10----10----10----10----|
D|------------------------------------------------|
A|------------------------------------------------|
D|------------------------------------------------|


[Chorus]
[Guitar 2]
[2:41-3:00]

e|---------------------------------|
B|---------------------------------|
G|---------6-6-6-6---------8-8-8-8-| (x4)
D|-8-8-8-8-6-6-6-6-6-6-6-6-8-8-8-8-|
A|-8-8-8-8-4-4-4-4-6-6-6-6-6-6-6-6-|
D|-8-8-8-8---------6-6-6-6---------|


[Outro]
[Guitar 1]
[3:04-end]

e|---------------------------------|
B|---------------------------------|
G|---------------------------------| (x2)
D|-----------------1-1-1-1---------|
A|-1-1-0-1-4-1-0-1---------4-4-4-0-|
D|---------------------------------|


[Outro]
[Guitar 2]
[3:00-end]

e|-----------------|
B|-----------------|
G|-------------8-8-| (x4)
D|-8-8-8-8-6-6-8-8-|
A|-8-8-8-8-6-6-6-6-|
D|-8-8-8-8-6-6-----|

[End chord]
[Guitar 2]             [Guitar 1]

e|---------------|     e|---------------| 
B|---------------|     B|-1/11~---------|
G|---------------|     G|---------------|
D|-8~------------|     D|---------------|
A|-8~------------|     A|---------------|
D|-8~------------|     D|---------------|




------------------
| h - hammer on  |
| / - slide      |
| . - palm mute  |
| t - tremolo    |
------------------



Suggest correction
Creating personal tab
Creating personal tab
You can edit any tab online and save it as your Personal.

You can edit, replace or remove any tab part or add personal notes – all changes will be seen only by you.

Personal tabs can be accessed anytime from any device, even offline.
Learn more »
Give kudos to tab author, rate the tab!
1 2 3 4 5
comments
print report bad tab
guest
You may want to rate the tab now too:
select rating
Wanna post a correction for this tab? Suggest correction