Oops, an error
Loading. Please wait.

Dont Bury Me Im Still Not Dead bass

version 1
version 1

Whole song

Interactive

695 views 1 this week
1 commentread comment
1 2 3 4 5
1 last vote to show rating
add to favorites
×
Save as Personal and add changes to this tab that will be seen only by you. Learn more ›
×
You can save this tab as Personal to edit and correct it or add notes. All changes will be seen only by you. Learn more »
launch autoscroll
font size
0
reset
guitar tuner
backing track
0:00
0:00
edit
Autoscroll
slow
fast
+/-
esc
set tempo
stop
Author
Difficulty
----------------------------------------------------------------------
                   "Don't Bury Me...I'm Still Not Dead"
                            Riverboat Gamblers
----------------------------------------------------------------------

~ = LET RING

Order:

Intro/Chorus (X4)
Verse (X2)
Bridge (X2)
Pre-Chorus #1 (X2)
Pre-Chorus #2 (X1)
Intro/Chorus (X2)
Verse (X2)
Bridge (X2)
Pre-Chorus #1 (X2)
Pre-Chorus #2 (X1)
Intro/Chorus (X4)
Outro (X1)

Intro / Chorus:

G|---------------------------------------------------|
D|---------------------------------------------------|
A|--7--7--7--7--7--7--7--7--12-12-12-12-11-11-11-11--|
E|---------------------------------------------------|

G|---------------------------------------------------|
D|---------------------------------------------------|
A|--9--9--9--9--9--9--9--9--7--7--7--7--6--6--6--6---|
E|---------------------------------------------------|

Verse:

G|---------------------------------------------------|
D|---------------------------------------------------|
A|-7~-----------------2~-----------------------------|
E|---------------------------------------------------|

G|---------------------------------------------------|
D|---------------------------------------------------|
A|-O~------------------------------------------------|
E|--------------------0~-----------------------------|

G|---------------------------------------------------|
D|---------------------------------------------------|
A|-0~------------------------------------------------|
E|--------------------0~-----------------------------|

G|---------------------------------------------------|
D|---------------------------------------------------|
A|-2~------------------------------------------------|
E|---------------------------------------------------|

Bridge

G|---------------------------------------------------|
D|---------------------------------------------------|
A|-0~------------------------------------------------|
E|--------------------0~-----------------------------|

G|---------------------------------------------------|
D|---------------------------------------------------|
A|-2~------------------------------------------------|
E|---------------------------------------------------|

Pre-Chorus #1

G|---------------------------------------------------|
D|---------------------------------------------------|
A|-4--4--4--4--0--0--0--0--------------2--2--2--2----|
E|-------------------------0--0--0--0----------------|

Pre-Chorus #2

G|---------------------------------------------------|
D|---------------------------------------------------|
A|-0--0--0--0--0--0--0--0--2--2--2--2--2--2--2--2----|
E|---------------------------------------------------|

...........................................................

Outro

    Right!   Right!   Right!   Right!  Right!   Right! Right!   Right!

G|--------------------------------------------------------------------------|
D|--------------------------------------------------------------------------|
A|--4-4-4-4--4-4-4-4--0-0-0-0--0-0-0-0-----------------2-2-2-2--2-2-2-2-----|
E|-------------------------------------0-0-0-0--0-0-0-0------------------0~-|

*******NOTE THE BASSIST MAY BE DOING SOMETHING THAT SOUNDS MUCH MORE COMPLICATED AND 
AND AT THIS POINT I HAVE NO IDEA WHAT THAT IS BUT FOR THE TIME BEING SEEING AS NO ONE HAD 
THIS ON BASS THIS SOUNDS GREAT AND I AM WORKING ON A REVISED VERSION*******

            
            
Suggest correction
Creating personal tab
Creating personal tab
You can edit any tab online and save it as your Personal.

You can edit, replace or remove any tab part or add personal notes – all changes will be seen only by you.

Personal tabs can be accessed anytime from any device, even offline.
Learn more »
Give kudos to tab author, rate the tab!
1 2 3 4 5
comments
print report bad tab
1 comment total.
0 reply
TheClash57 41 Jun 20, 2009 05:07 PM

He does do several fills in here but I just threw in my own stuff. You can also play the verse by playing 7777777 222222222 instead of just letting them ring out, both ways sounded fine to me

guest
You may want to rate the tab now too:
select rating
Wanna post a correction for this tab? Suggest correction