Oops, an error
Loading. Please wait.

Riverale Stomp Tab

251 views 1 this week
no commentswrite comment
1 2 3 4 5
please rate
add to favorites
launch autoscroll
font size
0
reset
how to read this tab
guitar tuner
Autoscroll
slow
fast
+/-
esc
set tempo
stop
Help us to improve Ultimate-Guitar.com Take our survey!
×
Riverale Stomp
Storm The Streets (1997)
Riverdales

Intro
e|------------------------------------------------------------|
B|------------------------------------------------------------|
G|------------------------------------------------------------|
D|---7-7-7-7-7-7-6--7-7-7-7-7-7-6--7-7-7-7-7-7-6--7-7-7-7-7---|
A|---7-7-7-7-7-7-6--7-7-7-7-7-7-6--7-7-7-7-7-7-6--7-7-7-7-7---|
E|---5-5-5-5-5-5-4--5-5-5-5-5-5-4--5-5-5-5-5-5-4--5-5-5-5-5---|

Verse
e|---------------------------------------------------| 
B|---------------------------------------------------| 
G|--------------7-7-7-7-7-7-------------9-9-9-9-9-9--| 
D|--7-7-7-7-7-7-7-7-7-7-7-7-7-7-7-7-7-7-9-9-9-9-9-9--| 
A|--7-7-7-7-7-7-5-5-5-5-5-5-7-7-7-7-7-7-7-7-7-7-7-7--| 
E|--5-5-5-5-5-5-------------5-5-5-5-5-5--------------| 
I knew a girl named Ronnie Lodge
She always had money on her mind

e|---------------------------------------------------| 
B|---------------------------------------------------| 
G|--------------7-7-7-7-7-7-------9-9-9--------------| 
D|--7-7-7-7-7-7-7-7-7-7-7-7-7-7-7-9-9-9-7-7-7-7-7-7--| 
A|--7-7-7-7-7-7-5-5-5-5-5-5-7-7-7-7-7-7-7-7-7-7-7-7--| 
E|--5-5-5-5-5-5-------------5-5-5-------5-5-5-5-5-5--|
She would start to tap her toes
Snap her fingers just like so
And it made her dance every single time

Chorus
e|---------------------------------------------------| 
B|---------------------------------------------------| 
G|--------------7-7-7-7-7-7-------------9-9-9-9-9-9--| 
D|--7-7-7-7-7-7-7-7-7-7-7-7-7-7-7-7-7-7-9-9-9-9-9-9--| 
A|--7-7-7-7-7-7-5-5-5-5-5-5-7-7-7-7-7-7-7-7-7-7-7-7--| 
E|--5-5-5-5-5-5-------------5-5-5-5-5-5--------------| 
Riverdale Stomp, baby lets go
Riverdale Stomp, baby lets go

e|---------------------------------------------------| 
B|---------------------------------------------------| 
G|--------------7-7-7-7-7-7-------9-9-9--------------| 
D|--7-7-7-7-7-7-7-7-7-7-7-7-7-7-7-9-9-9-7-7-7-7-7-7--| 
A|--7-7-7-7-7-7-5-5-5-5-5-5-7-7-7-7-7-7-7-7-7-7-7-7--| 
E|--5-5-5-5-5-5-------------5-5-5-------5-5-5-5-5-5--|
Riverdale Stomp, baby lets go

Verse
e|---------------------------------------------------| 
B|---------------------------------------------------| 
G|--------------7-7-7-7-7-7-------------9-9-9-9-9-9--| 
D|--7-7-7-7-7-7-7-7-7-7-7-7-7-7-7-7-7-7-9-9-9-9-9-9--| 
A|--7-7-7-7-7-7-5-5-5-5-5-5-7-7-7-7-7-7-7-7-7-7-7-7--| 
E|--5-5-5-5-5-5-------------5-5-5-5-5-5--------------| 
Betty was whacked on sedatives
They said it was supposed to calm her down

e|---------------------------------------------------| 
B|---------------------------------------------------| 
G|--------------7-7-7-7-7-7-------9-9-9--------------| 
D|--7-7-7-7-7-7-7-7-7-7-7-7-7-7-7-9-9-9-7-7-7-7-7-7--| 
A|--7-7-7-7-7-7-5-5-5-5-5-5-7-7-7-7-7-7-7-7-7-7-7-7--| 
E|--5-5-5-5-5-5-------------5-5-5-------5-5-5-5-5-5--|
But when the band started to play
Betty'd start to sway
And the crazy chick would shake it all around

Chorus
e|---------------------------------------------------| 
B|---------------------------------------------------| 
G|--------------7-7-7-7-7-7-------------9-9-9-9-9-9--| 
D|--7-7-7-7-7-7-7-7-7-7-7-7-7-7-7-7-7-7-9-9-9-9-9-9--| 
A|--7-7-7-7-7-7-5-5-5-5-5-5-7-7-7-7-7-7-7-7-7-7-7-7--| 
E|--5-5-5-5-5-5-------------5-5-5-5-5-5--------------| 
Riverdale Stomp, baby lets go
Riverdale Stomp, baby lets go

e|---------------------------------------------------| 
B|---------------------------------------------------| 
G|--------------7-7-7-7-7-7-------9-9-9--------------| 
D|--7-7-7-7-7-7-7-7-7-7-7-7-7-7-7-9-9-9-7-7-7-7-7-7--| 
A|--7-7-7-7-7-7-5-5-5-5-5-5-7-7-7-7-7-7-7-7-7-7-7-7--| 
E|--5-5-5-5-5-5-------------5-5-5-------5-5-5-5-5-5--|
Riverdale Stomp, baby lets go

Bridge
e|----------------------------------|
B|----------------------------------|
G|---------------7---7---7-7-7-7-7--|
D|--4-4-4-7-7-7--7-7-7-7-7-7-7-7-7--|
A|--4-4-4-7-7-7--5-7-5-7-5-5-5-5-5--|
E|--2-2-2-5-5-5----5---5------------|
You know their parents think it's wrong

e|---------------------------------------------------------------|
B|---------------------------------------------------------------|
G|---------------7---7---7-7-7-7-7--7---7---7-7-7-7-7-7-7-7-7-7--|
D|--4-4-4-7-7-7--7-7-7-7-7-7-7-7-7--7-7-7-7-7-7-7-7-7-7-7-7-7-7--|
A|--4-4-4-7-7-7--5-7-5-7-5-5-5-5-5--5-7-5-7-5-5-5-5-5-5-5-5-5-5--|
E|--2-2-2-5-5-5----5---5-------------5---5-----------------------|
They kids were dancing all night long

Chorus (x5)
e|---------------------------------------------------| 
B|---------------------------------------------------| 
G|--------------7-7-7-7-7-7-------------9-9-9-9-9-9--| 
D|--7-7-7-7-7-7-7-7-7-7-7-7-7-7-7-7-7-7-9-9-9-9-9-9--| 
A|--7-7-7-7-7-7-5-5-5-5-5-5-7-7-7-7-7-7-7-7-7-7-7-7--| 
E|--5-5-5-5-5-5-------------5-5-5-5-5-5--------------| 
Riverdale Stomp, baby lets go
Riverdale Stomp, baby lets go

e|---------------------------------------------------| 
B|---------------------------------------------------| 
G|--------------7-7-7-7-7-7-------9-9-9--------------| 
D|--7-7-7-7-7-7-7-7-7-7-7-7-7-7-7-9-9-9-7-7-7-7-7-7--| 
A|--7-7-7-7-7-7-5-5-5-5-5-5-7-7-7-7-7-7-7-7-7-7-7-7--| 
E|--5-5-5-5-5-5-------------5-5-5-------5-5-5-5-5-5--|
Riverdale Stomp, baby lets go
Suggest correction
What's this?
You can suggest a correction to this tab. Community and Mods will review your correction and vote to approve or reject it.
comments
We did not receive enough feedback on this tab! Please rate:
print report bad tab
1 2 3 4 5
guest
You may want to rate the tab now too:
select rating
Please do not post tabs as comments. Select "correction" instead!