Oops, an error
Loading. Please wait.

Firedance Tab

version 2
version 2

Whole song

  • A compilation of a lot of different versions of th... Show more

Interactive

46 views 1 this week
no commentswrite comment
1 2 3 4 5
3 more votes to show rating
add to favorites
launch autoscroll
font size
0
reset
how to read this tab
guitar tuner
Autoscroll
slow
fast
+/-
esc
set tempo
stop
Help us to improve Ultimate-Guitar.com Take our survey!
×
Author
Difficulty
intermediate
About this tab version
A compilation of a lot of different versions of this song along with going by ear. Was this info helpful? Yes No
[Intro]

e|----3--2----------0---------------0------------------------------------------|
B|----0------3-3----------------0-------12-------------------------------------|
G|-------------0----0---2---2--------------------------------------------------|
D|--2----0------------------0---2----------------------------------------------|
A|-------------2----3-----------0----------------------------------------------|
E|--------------------------3--------------------------------------------------|

e|----3--2----------0----------------------------------------------------------|
B|----0-----3--3----------------0-----0---1p0-----0--1------0-0-1p0----0--1----|
G|-------------0----0---2---2------------------2-----2----2---------2-----2----|
D|--2----0------------------0---2--------------------2--2----------------------|
A|-------------2----3-----------------------------0----------------------------|
E|--------------------------3---4--------------------------------------1-------|

e|-----------------------------0--3---1---------0-----------------------------0--------0---------|
B|------0-0-1p0---0-1-------3---------1-0-1--3--1------1--3--5--6--3----8--3--1--1--3--5---12----|
G|----2---------2---0-----0----0--0---1---------0----0---------------0--------0--------4---------|
D|--3------------------2----------2---3---------2--2--------------------------2--------4---------|
A|------------------3---------------------------3------------------2----------3--------2---------|
E|----------------------------------------------0-----------------------7-----0------------------|


e|----3--2----------0---------------0------------------------------------------|
B|----0------3-3----------------0-------12-------------------------------------|
G|-------------0----0---2---2--------------------------------------------------|
D|--2----0------------------0---2----------------------------------------------|
A|-------------2----3-----------0----------------------------------------------|
E|--------------------------3--------------------------------------------------|

e|----3--2----------0------------------0---7---10p8-------7---8----------------|
B|----0-----3--3----------------0--------------------10------------------------|
G|-------------0----0---2---2--------------------------------------------------|
D|--2----0------------------0---2---2------------------------------------------|
A|-------------2----3----------------------------------------------------------|
E|--------------------------3---4----------------------------------------------|

e|-----7-7-7---10p8----7---10p7h10p8----------7h8p7-----7--8---8--10--12----|
B|--10--------------10--------------------10---------10------8--------------|
G|-------------------------------------10-----------------------------------|
D|--------------------------------------------------------------------------|
A|--------------------------------------------------------------------------|
E|--------------------------------------------------------------------------|

e|--15--13p12p10-----------------------------------------12p10h12--10-12-13---|
B|----------------13-12-10-8--------------------------------------------------|
G|---------------------------10-9-7-5-----------------------------------------|
D|----------------------------------------------------------------------------|
A|----------------------------------------------------------------------------|
E|----------------------------------------------------------------------------|

e|-10--15-----10--8-8----8--10--12---------------------------------------------|
B|------------------------------12---------------------------------------------|
G|------------------------------13---------------------------------------------|
D|-----------------------------------------------------------------------------|
A|-----------------------------------------------------------------------------|
E|-----------------------------------------------------------------------------|

[Chorus] Next portion after rhythm. 

e|-----0----0-5------------------10-7----7--5--3--5--3--3-----0--------|
B|-1-3----------7----7-8-10---10---------------------------1-----------|
G|--------------------------------0-0----------------------------------|
D|------------0------------------12-9----------------------------------|
A|-0-2-3----3---5----5-7-9-----9---------------------------------------|
E|---------------------------------------------------------------------|

e|-0------------------------------------0----0-5-------------------10-7----------|
B|---3--1--3--1--0----0--1--0---0---1-3----------7----7-8-10----10---------------|
G|----------------------------2-------------------------------------0-0----------|
D|---------------------------------------------0-------------------12-9----------|
A|----------------------------------0-2-3----3---5----5-7--9----9----------------|
E|-------------------------------------------------------------------------------|

e|-7--5--3--5--3--3-----0-----0---------------------------------------------------------|
B|-------------------1-----------3--1--3--1--0----0--1--0-----------5-3\1p0-0--5-3\1p0--|
G|---------------------------------------------------------2--4--4----------------------|
D|--------------------------------------------------------------------------------------|
A|--------------------------------------------------------------------------------------|
E|--------------------------------------------------------------------------------------|

e|-------------------------0---0---------------------------------------------|
B|-5-3\1p0-0--5-3\1p0----1---3---3-1-0-0--0-1-0---------0--------------------|
G|----------------------------------------------2-0-0-0---2------------------|
D|---------------------------------------------------------------------------|
A|---------------------------------------------------------------------------|
E|---------------------------------------------------------------------------|

e|-------------------------------------------------0---0----------------------------|
B|-0-0-5-3\1p0-0--5-3\1p0---5-3\1p0-0--5-3\1p0---1---3---3-1-0-0--0-1-0---------0---|
G|----------------------------------------------------------------------2-0-0-0---2-|
D|----------------------------------------------------------------------------------|
A|----------------------------------------------------------------------------------|
E|----------------------------------------------------------------------------------|

Repeat this portion about 3 more times.
This is all the bit before Michael Flatley comes on and tries to show her up.

Hope you enjoy! :)

************************************

| h   Hammer-on
| p   Pull-off

************************************
Suggest correction
Give kudos to tab author, rate the tab!
1 2 3 4 5
comments
print report bad tab
guest
You may want to rate the tab now too:
select rating
Wanna post a correction for this tab? Suggest correction