Oops, an error
Loading. Please wait.

214 Tab

version 5
version 5

Whole song

Interactive

29,928 views 111 this week
1 commentread comment
1 2 3 4 5
x 9
add to favorites
launch autoscroll
font size
0
reset
how to read this tab
guitar tuner
×
Best way to learn
"214"
Autoscroll
slow
fast
+/-
esc
set tempo
stop
Author
214
rivermaya
complete

KEYBOARD (transcribed in guitar)
E|-------8------10-------------------------------------|
B|-----8------10-----------------------------------12--|
G|---9------11-----12----12-12s14-12-11----------11----|
D|-10-----12----------12-----------------10-12-9-------|
A|-----------------------------------------------------|
E|-----------------------------------------------------|

E|---------------------------------------x-x----------------|
B|---------------------------12-10-12----9-9---x-x----x---x-|
G|--12-11-12-9-12-----12---12------------7-7---7-7----5---7-|
D|-----------------12----9---------------9-9---7-7----5---7-|
A|---------------------------------------7-7---5-5----3---5-|
E|---------------------------------------x-x---x-x----x---x-|

 guitar (clean w/ flanger)
E|---------------------------------------------------------|
B|---------------------------------------------------------|
G|---------------------------------------------------------|
D|-----2---2/6-4-2-5-4-2h4---------------------------------|
A|---2---2-----------------3-5-5/7-------------------------|
E|-0-------------------------------------------------------|

E|---------------------------------------------------------|
B|---------------------------------------------------------|
G|---------------------------------------------------------|
D|-----2---2/6-4-2-5-4-2h4--------------2--6h8-6--2h4-2----|
A|---2---2-----------------3-5-5/7----2--------------------|
E|-0--------------------------------0----------------------|


[Verse]

       E  
Am I real
         Bm
do the words I speak before you 
           E              Bm
make you feel,that the love
                             A
I have for you will see no ending?
             Am
well if you look into my eyes 
                 E
then you should know
                  Bm
that there is nothing here to doubt
             E
nothing to fear
             Bm
and you can lay your questions down
                A
cause if you'll hold me
         Am                               
we can fade into the night and you'll know


[Refrain]

G        Em       Bm
 the world could die
     C        D   G
and everything may lie
       Em       D  C-D
still you shan't cry
G       Em      Bm
 coz time may pass
      C            G
but longer It'll last
        Em     D    E-C-D(2x)E-
I'll be by your side


[Verse]

(Do chords same as 1st verse)

take my hand
and gently close your eyes
so you could understand
that there's no greater love tonight
that what I've for you
well If you feel the same way for me then let go
we can journey to a garden no one knows
life is short my darlin tell me that you love me
so we can fade into the night and youll know
(repeat chorus)


[Solo]
E|------------------------------------------------------|
B|-------------------------------------------------12\--|
G|---------------------------------------/12-12---------|
D|--/12-<12^14>-10-<10^12>---------7---5--------10------|
A|-----------------------------5-----7------------------|
E|-------------------------5-7---7----------------------|
                                                                
E|--------10----10----14----14^16-14^16-14-12-----------------|
B|--10h12----12----12----12-------------------15^17-15-12-15--|
G|------------------------------------------------------------|
D|------------------------------------------------------------|
A|------------------------------------------------------------|
E|------------------------------------------------------------|

E|--12--------------------------------|
B|-----15p14p12-----------------------|
G|--------------14^16-12h14h16--------|
D|------------------------------------|
A|------------------------------------|
E|-----------------------------12b^/--|

E|--/12----12h15h17p15p12--------------------------------|
B|------15----------------17p15p12h15p14p12--------------|
G|------------------------------------------17p15p14p12--|
D|-------------------------------------------------------|
A|-------------------------------------------------------|
E|-------------------------------------------------------|

(same as chorus chords)
the world could die
and everything may lie
but you wont cry
coz time may pass
and everything wont last
I'll be by your side
forever by your side
so you wont cry

-end-



************************************

| x  Dead note
| h  Hammer-on
| p  Pull-off
| >  Accented note
| /  Slide up
| \  Slide down
  
************************************
Suggest correction
comments
print report bad tab
1 comment total.
0 reply
sentoroney 10 Apr 11, 2005 08:00 PM

hey dude...ur tab are more accurate than them...ur solo part is like my transcribed..cool more tabs.. ROCK IT ON..


sentoroney

guest
You may want to rate the tab now too:
select rating
Wanna post a correction for this tab? Suggest correction