Oops, an error
Loading. Please wait.

Awit Ng Kabataan solo tab

version 1
version 1

Whole song

Interactive

28,073 views 18 this week
4 commentsread comments
1 2 3 4 5
x 3
add to favorites
×
Save as Personal and add changes to this tab that will be seen only by you. Learn more ›
×
You can save this tab as Personal to edit and correct it or add notes. All changes will be seen only by you. Learn more »
launch autoscroll
font size
0
reset
how to read this tab
guitar tuner
edit
Autoscroll
slow
fast
+/-
esc
set tempo
stop
Author
Unregistered
Standard tuning (EADGBe)

[Solo]
e|-----------------------------------------------------7----10-8/10-10\8p7----|
B|-----12-13-15-/20-20\15v-13-12-13/15-\8v-----8---10-----10------------------|
G|---12------------------------------------7/9---9----9-----------------------|
D|-14-------------------------------------------------------------------------|
A|----------------------------------------------------------------------------|
E|----------------------------------------------------------------------------|

e|-8/15—15\10/12-\10-8-7-8-10p8p7-T12/15—-0h10h12-T15p12-T15p12-0h8h10-T15p12-|
B|----------------------------------------------------------------------------|
G|----------------------------------------------------------------------------|
D|----------------------------------------------------------------------------|
A|----------------------------------------------------------------------------|
E|----------------------------------------------------------------------------|

e|-T15p12-0h7h8-T15p12-T15p12-0h5h7--T15p12-T15p12-0h7h8/22-T24p22-T24p22-----|
B|----------------------------------------------------------------------------|
G|----------------------------------------------------------------------------|
D|----------------------------------------------------------------------------|
A|----------------------------------------------------------------------------|
E|----------------------------------------------------------------------------|

e|---------------------------------20-----------------------------------------|
B|-22b(24)-22b(24)-22-20-22-22b(24)---22b(24)—20v----20-20-------20-20--------|
G|------------------------------------------------21-------19h20--------------|
D|----------------------------------------------------------------------------|
A|----------------------------------------------------------------------------|
E|----------------------------------------------------------------------------|

e|---------------------------------------T19-p17p15p14—(T19-p17p15p14)--------|
B|-----------------------------15-T20p15--------------------------------------|
G|-19*\14\12----------12-14/16------------------------------------------------| (x2)
D|-----------14—12h14---------------------------------------------------------|
A|----------------------------------------------------------------------------|
E|----------------------------------------------------------------------------|
                                                                
e|-------------------------------14h15h17-T19-p17p15p14—(T19-p17p15p14)-------|
B|-T17-p15p13-----------------------------------------------------------------|
G|------------T16-p11h12-T16-p12----------------------------------------------|
D|----------------------------------------------------------------------------| (x2
A|----------------------------------------------------------------------------|
E|----------------------------------------------------------------------------|

e|-------------------------------14h15p14-17p15p14\12h14h15p14p12-------------|
B|-T17-p15p13-----------------------------------------------------12h13p12----|
G|------------T16-p11h12-T16-p12----------------------------------------------|
D|----------------------------------------------------------------------------|
A|----------------------------------------------------------------------------|
E|----------------------------------------------------------------------------|

e|----------------------------------------------------------------------------|
B|-15p13p12\10h12h13p12p10----------------------------------------------------|
G|--------------------------11h12-T16p12~~~----vibrate-tremolo-/\/\/\---------|
D|----------------------------------------------------------------------------|
A|----------------------------------------------------------------------------|
E|----------------------------------------------------------------------------|



************************************

| p  Pull-off
| /  Slide up
| \  Slide down
| h  Hammer-on
| ~  Vibrato

************************************

            
            
Suggest correction
Creating personal tab
Creating personal tab
You can edit any tab online and save it as your Personal.

You can edit, replace or remove any tab part or add personal notes – all changes will be seen only by you.

Personal tabs can be accessed anytime from any device, even offline.
Learn more »
Give kudos to tab author, rate the tab!
1 2 3 4 5
comments
print report bad tab
4 comments total. Showing first comments.
0 reply
jumpfuds 31 Nov 02, 2009 11:05 PM

auz pare,, madami kang matutulungan ne2,, dmi nghahanap n newbies,,, yan paralan nio,, para s tapping at legato
-bopols-

0 reply
jumpfuds 31 Nov 02, 2009 11:06 PM

auz pare,, madami kang matutulungan ne2,, dmi nghahanap n newbies,,, yan paralan nio,, para s tapping at legato
-bopols-

0 reply
jumpfuds 31 Sep 18, 2010 10:22 PM

diatonic xa. hmm.

guest
Wanna post a correction for this tab? Suggest correction